  0
SECTION
  2
HEADER
  9
$ACADVER
  1
AC1015
  9
$ACADMAINTVER
 70
     6
  9
$DWGCODEPAGE
  3
ANSI_1254
  9
$INSBASE
 10
0.0
 20
0.0
 30
0.0
  9
$EXTMIN
 10
0.0
 20
0.0
 30
0.0
  9
$EXTMAX
 10
279.4
 20
215.9
 30
0.0
  9
$LIMMIN
 10
0.0
 20
0.0
  9
$LIMMAX
 10
279.4
 20
215.9
  9
$ORTHOMODE
 70
     0
  9
$REGENMODE
 70
     1
  9
$FILLMODE
 70
     1
  9
$QTEXTMODE
 70
     0
  9
$MIRRTEXT
 70
     1
  9
$LTSCALE
 40
1.0
  9
$ATTMODE
 70
     1
  9
$TEXTSIZE
 40
3.5
  9
$TRACEWID
 40
1.0
  9
$TEXTSTYLE
  7
Standard
  9
$CLAYER
  8
0
  9
$CELTYPE
  6
ByLayer
  9
$CECOLOR
 62
   256
  9
$CELTSCALE
 40
1.0
  9
$DISPSILH
 70
     0
  9
$DIMSCALE
 40
1.0
  9
$DIMASZ
 40
3.5
  9
$DIMEXO
 40
1.0
  9
$DIMDLI
 40
3.75
  9
$DIMRND
 40
0.0
  9
$DIMDLE
 40
0.0
  9
$DIMEXE
 40
1.0
  9
$DIMTP
 40
0.0
  9
$DIMTM
 40
0.0
  9
$DIMTXT
 40
3.5
  9
$DIMCEN
 40
2.5
  9
$DIMTSZ
 40
0.0
  9
$DIMTOL
 70
     0
  9
$DIMLIM
 70
     0
  9
$DIMTIH
 70
     1
  9
$DIMTOH
 70
     1
  9
$DIMSE1
 70
     0
  9
$DIMSE2
 70
     0
  9
$DIMTAD
 70
     1
  9
$DIMZIN
 70
     0
  9
$DIMBLK
  1

  9
$DIMASO
 70
     1
  9
$DIMSHO
 70
     1
  9
$DIMPOST
  1

  9
$DIMAPOST
  1

  9
$DIMALT
 70
     0
  9
$DIMALTD
 70
     3
  9
$DIMALTF
 40
0.0393700787
  9
$DIMLFAC
 40
1.0
  9
$DIMTOFL
 70
     1
  9
$DIMTVP
 40
0.0
  9
$DIMTIX
 70
     0
  9
$DIMSOXD
 70
     0
  9
$DIMSAH
 70
     0
  9
$DIMBLK1
  1

  9
$DIMBLK2
  1

  9
$DIMSTYLE
  2
ISO-25
  9
$DIMCLRD
 70
     0
  9
$DIMCLRE
 70
     0
  9
$DIMCLRT
 70
     0
  9
$DIMTFAC
 40
1.0
  9
$DIMGAP
 40
1.524
  9
$DIMJUST
 70
     0
  9
$DIMSD1
 70
     0
  9
$DIMSD2
 70
     0
  9
$DIMTOLJ
 70
     0
  9
$DIMTZIN
 70
     0
  9
$DIMALTZ
 70
     0
  9
$DIMALTTZ
 70
     0
  9
$DIMUPT
 70
     0
  9
$DIMDEC
 70
     2
  9
$DIMTDEC
 70
     2
  9
$DIMALTU
 70
     2
  9
$DIMALTTD
 70
     3
  9
$DIMTXSTY
  7
Standard
  9
$DIMAUNIT
 70
     0
  9
$DIMADEC
 70
     2
  9
$DIMALTRND
 40
0.0
  9
$DIMAZIN
 70
     0
  9
$DIMDSEP
 70
    44
  9
$DIMATFIT
 70
     3
  9
$DIMFRAC
 70
     0
  9
$DIMLDRBLK
  1

  9
$DIMLUNIT
 70
     2
  9
$DIMLWD
 70
    -2
  9
$DIMLWE
 70
    -2
  9
$DIMTMOVE
 70
     0
  9
$LUNITS
 70
     2
  9
$LUPREC
 70
     2
  9
$SKETCHINC
 40
1.0
  9
$FILLETRAD
 40
10.0
  9
$AUNITS
 70
     0
  9
$AUPREC
 70
     2
  9
$MENU
  1
.
  9
$ELEVATION
 40
0.0
  9
$PELEVATION
 40
0.0
  9
$THICKNESS
 40
0.0
  9
$LIMCHECK
 70
     0
  9
$CHAMFERA
 40
0.0
  9
$CHAMFERB
 40
0.0
  9
$CHAMFERC
 40
0.0
  9
$CHAMFERD
 40
0.0
  9
$SKPOLY
 70
     0
  9
$TDCREATE
 40
2458985.651589444
  9
$TDUCREATE
 40
2458985.526589444
  9
$TDUPDATE
 40
2458985.651589768
  9
$TDUUPDATE
 40
2458985.526589768
  9
$TDINDWG
 40
0.0000000116
  9
$TDUSRTIMER
 40
0.0000000116
  9
$USRTIMER
 70
     1
  9
$ANGBASE
 50
0.0
  9
$ANGDIR
 70
     0
  9
$PDMODE
 70
     0
  9
$PDSIZE
 40
-1.0
  9
$PLINEWID
 40
0.0
  9
$SPLFRAME
 70
     0
  9
$SPLINETYPE
 70
     6
  9
$SPLINESEGS
 70
     8
  9
$HANDSEED
  5
C2
  9
$SURFTAB1
 70
     6
  9
$SURFTAB2
 70
     6
  9
$SURFTYPE
 70
     6
  9
$SURFU
 70
     6
  9
$SURFV
 70
     6
  9
$UCSBASE
  2

  9
$UCSNAME
  2

  9
$UCSORG
 10
0.0
 20
0.0
 30
0.0
  9
$UCSXDIR
 10
1.0
 20
0.0
 30
0.0
  9
$UCSYDIR
 10
0.0
 20
1.0
 30
0.0
  9
$UCSORTHOREF
  2

  9
$UCSORTHOVIEW
 70
     0
  9
$UCSORGTOP
 10
0.0
 20
0.0
 30
0.0
  9
$UCSORGBOTTOM
 10
0.0
 20
0.0
 30
0.0
  9
$UCSORGLEFT
 10
0.0
 20
0.0
 30
0.0
  9
$UCSORGRIGHT
 10
0.0
 20
0.0
 30
0.0
  9
$UCSORGFRONT
 10
0.0
 20
0.0
 30
0.0
  9
$UCSORGBACK
 10
0.0
 20
0.0
 30
0.0
  9
$PUCSBASE
  2

  9
$PUCSNAME
  2

  9
$PUCSORG
 10
0.0
 20
0.0
 30
0.0
  9
$PUCSXDIR
 10
1.0
 20
0.0
 30
0.0
  9
$PUCSYDIR
 10
0.0
 20
1.0
 30
0.0
  9
$PUCSORTHOREF
  2

  9
$PUCSORTHOVIEW
 70
     0
  9
$PUCSORGTOP
 10
0.0
 20
0.0
 30
0.0
  9
$PUCSORGBOTTOM
 10
0.0
 20
0.0
 30
0.0
  9
$PUCSORGLEFT
 10
0.0
 20
0.0
 30
0.0
  9
$PUCSORGRIGHT
 10
0.0
 20
0.0
 30
0.0
  9
$PUCSORGFRONT
 10
0.0
 20
0.0
 30
0.0
  9
$PUCSORGBACK
 10
0.0
 20
0.0
 30
0.0
  9
$USERI1
 70
     0
  9
$USERI2
 70
     0
  9
$USERI3
 70
     0
  9
$USERI4
 70
     0
  9
$USERI5
 70
     0
  9
$USERR1
 40
0.0
  9
$USERR2
 40
0.0
  9
$USERR3
 40
0.0
  9
$USERR4
 40
0.0
  9
$USERR5
 40
0.0
  9
$WORLDVIEW
 70
     1
  9
$SHADEDGE
 70
     3
  9
$SHADEDIF
 70
    70
  9
$TILEMODE
 70
     1
  9
$MAXACTVP
 70
    64
  9
$PINSBASE
 10
0.0
 20
0.0
 30
0.0
  9
$PLIMCHECK
 70
     0
  9
$PEXTMIN
 10
1.0000000000E+20
 20
1.0000000000E+20
 30
1.0000000000E+20
  9
$PEXTMAX
 10
-1.0000000000E+20
 20
-1.0000000000E+20
 30
-1.0000000000E+20
  9
$PLIMMIN
 10
0.0
 20
0.0
  9
$PLIMMAX
 10
420.0
 20
297.0
  9
$UNITMODE
 70
     0
  9
$VISRETAIN
 70
     1
  9
$PLINEGEN
 70
     0
  9
$PSLTSCALE
 70
     1
  9
$TREEDEPTH
 70
  3020
  9
$CMLSTYLE
  2
Standard
  9
$CMLJUST
 70
     0
  9
$CMLSCALE
 40
20.0
  9
$PROXYGRAPHICS
 70
     1
  9
$MEASUREMENT
 70
     1
  9
$CELWEIGHT
370
    -1
  9
$ENDCAPS
280
     0
  9
$JOINSTYLE
280
     0
  9
$LWDISPLAY
290
     1
  9
$INSUNITS
 70
     4
  9
$HYPERLINKBASE
  1

  9
$STYLESHEET
  1

  9
$XEDIT
290
     1
  9
$CEPSNTYPE
380
     0
  9
$PSTYLEMODE
290
     1
  9
$FINGERPRINTGUID
  2
{1ff2b9b0-b65b-4f8a-9f4e-3d2af9f62e2b}
  9
$VERSIONGUID
  2
{FAEB1C32-E019-11D5-929B-00C0DF256EC4}
  9
$EXTNAMES
290
     1
  9
$PSVPSCALE
 40
0.0
  9
$OLESTARTUP
290
     0
  0
ENDSEC
  0
SECTION
  2
CLASSES
  0
CLASS
  1
ACDBDICTIONARYWDFLT
  2
AcDbDictionaryWithDefault
  3
ObjectDBX Classes
 90
        0
280
     0
281
     0
  0
CLASS
  1
VISUALSTYLE
  2
AcDbVisualStyle
  3
ObjectDBX Classes
 90
     4095
280
     0
281
     0
  0
CLASS
  1
MATERIAL
  2
AcDbMaterial
  3
ObjectDBX Classes
 90
     1153
280
     0
281
     0
  0
CLASS
  1
SCALE
  2
AcDbScale
  3
ObjectDBX Classes
 90
     1153
280
     0
281
     0
  0
CLASS
  1
TABLESTYLE
  2
AcDbTableStyle
  3
ObjectDBX Classes
 90
     4095
280
     0
281
     0
  0
CLASS
  1
MLEADERSTYLE
  2
AcDbMLeaderStyle
  3
ACDB_MLEADERSTYLE_CLASS
 90
     4095
280
     0
281
     0
  0
CLASS
  1
SUN
  2
AcDbSun
  3
SCENEOE
 90
     1153
280
     0
281
     0
  0
CLASS
  1
ACDBPLACEHOLDER
  2
AcDbPlaceHolder
  3
ObjectDBX Classes
 90
        0
280
     0
281
     0
  0
CLASS
  1
LAYOUT
  2
AcDbLayout
  3
ObjectDBX Classes
 90
        0
280
     0
281
     0
  0
ENDSEC
  0
SECTION
  2
TABLES
  0
TABLE
  2
VPORT
  5
8
330
0
100
AcDbSymbolTable
 70
     1
  0
VPORT
  5
29
330
8
100
AcDbSymbolTableRecord
100
AcDbViewportTableRecord
  2
*Active
 70
     0
 10
0.0
 20
0.0
 11
1.0
 21
1.0
 12
139.7
 22
107.95
 13
0.0
 23
0.0
 14
10.0
 24
10.0
 15
10.0
 25
10.0
 16
0.0
 26
0.0
 36
1.0
 17
0.0
 27
0.0
 37
0.0
 40
215.9
 41
1.2941176471
 42
50.0
 43
0.0
 44
0.0
 50
0.0
 51
0.0
 71
     0
 72
  2000
 73
     1
 74
     3
 75
     0
 76
     0
 77
     0
 78
     0
281
     0
 65
     1
110
0.0
120
0.0
130
0.0
111
1.0
121
0.0
131
0.0
112
0.0
122
1.0
132
0.0
 79
     0
146
0.0
  0
ENDTAB
  0
TABLE
  2
LTYPE
  5
5
330
0
100
AcDbSymbolTable
 70
     6
  0
LTYPE
  5
14
330
5
100
AcDbSymbolTableRecord
100
AcDbLinetypeTableRecord
  2
ByBlock
 70
     0
  3

 72
    65
 73
     0
 40
0.0
  0
LTYPE
  5
15
330
5
100
AcDbSymbolTableRecord
100
AcDbLinetypeTableRecord
  2
ByLayer
 70
     0
  3

 72
    65
 73
     0
 40
0.0
  0
LTYPE
  5
16
330
5
100
AcDbSymbolTableRecord
100
AcDbLinetypeTableRecord
  2
Continuous
 70
     0
  3
Solid line
 72
    65
 73
     0
 40
0.0
  0
LTYPE
  5
6E
330
5
100
AcDbSymbolTableRecord
100
AcDbLinetypeTableRecord
  2
HIDDEN
 70
     0
  3
Hidden __ __ __ __ __ __ __ __ __ __ __ __ __ __
 72
    65
 73
     2
 40
1.905
 49
1.27
 74
     0
 49
-0.635
 74
     0
  0
LTYPE
  5
6F
330
5
100
AcDbSymbolTableRecord
100
AcDbLinetypeTableRecord
  2
PHANTOM
 70
     0
  3
Phantom ______  __  __  ______  __  __  ______
 72
    65
 73
     6
 40
12.7
 49
6.35
 74
     0
 49
-1.27
 74
     0
 49
1.27
 74
     0
 49
-1.27
 74
     0
 49
1.27
 74
     0
 49
-1.27
 74
     0
  0
LTYPE
  5
70
330
5
100
AcDbSymbolTableRecord
100
AcDbLinetypeTableRecord
  2
CENTER
 70
     0
  3
Center ____ _ ____ _ ____ _ ____ _ ____ _ ____
 72
    65
 73
     4
 40
10.16
 49
6.35
 74
     0
 49
-1.27
 74
     0
 49
1.27
 74
     0
 49
-1.27
 74
     0
  0
LTYPE
  5
71
330
5
100
AcDbSymbolTableRecord
100
AcDbLinetypeTableRecord
  2
CENTERX2
 70
     0
  3
Center (2x) ________  __  ________  __  _____
 72
    65
 73
     4
 40
20.32
 49
12.7
 74
     0
 49
-2.54
 74
     0
 49
2.54
 74
     0
 49
-2.54
 74
     0
  0
LTYPE
  5
72
330
5
100
AcDbSymbolTableRecord
100
AcDbLinetypeTableRecord
  2
DOT2
 70
     0
  3
Dot (.5x) ........................................
 72
    65
 73
     2
 40
0.635
 49
0.0
 74
     0
 49
-0.635
 74
     0
  0
ENDTAB
  0
TABLE
  2
LAYER
  5
2
330
0
100
AcDbSymbolTable
 70
    17
  0
LAYER
  5
10
330
2
100
AcDbSymbolTableRecord
100
AcDbLayerTableRecord
  2
0
 70
     0
 62
     7
  6
Continuous
370
    -3
390
F
  0
LAYER
  5
73
330
2
100
AcDbSymbolTableRecord
100
AcDbLayerTableRecord
  2
FORMAT
 70
     0
 62
     7
  6
Continuous
370
    -3
390
F
  0
LAYER
  5
74
330
2
100
AcDbSymbolTableRecord
100
AcDbLayerTableRecord
  2
YARDIMCI_GEOMETRI
 70
     0
 62
    -6
  6
Continuous
290
     0
370
    -3
390
F
  0
LAYER
  5
75
330
2
100
AcDbSymbolTableRecord
100
AcDbLayerTableRecord
  2
SAYFA_CERCEVESI
 70
     0
 62
     7
  6
Continuous
370
    25
390
F
  0
LAYER
  5
76
330
2
100
AcDbSymbolTableRecord
100
AcDbLayerTableRecord
  2
ANTET
 70
     0
 62
     7
  6
Continuous
370
    -3
390
F
  0
LAYER
  5
77
330
2
100
AcDbSymbolTableRecord
100
AcDbLayerTableRecord
  2
OLCU
 70
     0
 62
   150
  6
Continuous
370
    -3
390
F
  0
LAYER
  5
78
330
2
100
AcDbSymbolTableRecord
100
AcDbLayerTableRecord
  2
METIN
 70
     0
 62
    96
  6
Continuous
370
    -3
390
F
  0
LAYER
  5
79
330
2
100
AcDbSymbolTableRecord
100
AcDbLayerTableRecord
  2
BALON
 70
     0
 62
     5
  6
Continuous
370
    -3
390
F
  0
LAYER
  5
7A
330
2
100
AcDbSymbolTableRecord
100
AcDbLayerTableRecord
  2
VURGU
 70
     0
 62
     7
  6
Continuous
370
    -3
390
F
  0
LAYER
  5
7B
330
2
100
AcDbSymbolTableRecord
100
AcDbLayerTableRecord
  2
SILIK
 70
     0
 62
     7
  6
Continuous
370
    -3
390
F
  0
LAYER
  5
7C
330
2
100
AcDbSymbolTableRecord
100
AcDbLayerTableRecord
  2
MODEL
 70
     0
 62
     7
  6
Continuous
370
    -3
390
F
  0
LAYER
  5
7D
330
2
100
AcDbSymbolTableRecord
100
AcDbLayerTableRecord
  2
DETAYLANDıRMA
 70
     0
 62
   190
  6
Continuous
370
    -3
390
F
  0
LAYER
  5
7E
330
2
100
AcDbSymbolTableRecord
100
AcDbLayerTableRecord
  2
TOLERANS
 70
     0
 62
   230
  6
Continuous
370
    -3
390
F
  0
LAYER
  5
7F
330
2
100
AcDbSymbolTableRecord
100
AcDbLayerTableRecord
  2
MERKEZ_CIZGILERI
 70
     0
 62
    30
  6
Continuous
370
    -3
390
F
  0
LAYER
  5
80
330
2
100
AcDbSymbolTableRecord
100
AcDbLayerTableRecord
  2
KESIT-DETAY_CIZGILERI
 70
     0
 62
     7
  6
Continuous
370
    -3
390
F
  0
LAYER
  5
81
330
2
100
AcDbSymbolTableRecord
100
AcDbLayerTableRecord
  2
\U+041E\U+0421\U+0415\U+0412\U+042B\U+0415
 70
     0
 62
     7
  6
Continuous
370
    -3
390
F
  0
LAYER
  5
82
330
2
100
AcDbSymbolTableRecord
100
AcDbLayerTableRecord
  2
\U+0412\U+041E\U+0414\U+042F\U+041D\U+042B\U+0415_\U+0417\U+041D\U+0410\U+041A\U+0418
 70
     0
 62
    11
  6
Continuous
370
    -3
390
F
  0
ENDTAB
  0
TABLE
  2
STYLE
  5
3
330
0
100
AcDbSymbolTable
 70
     1
  0
STYLE
  5
11
330
3
100
AcDbSymbolTableRecord
100
AcDbTextStyleTableRecord
  2
Standard
 70
     0
 40
0.0
 41
1.0
 50
0.0
 71
     0
 42
3.5
  3
txt
  4

  0
ENDTAB
  0
TABLE
  2
VIEW
  5
6
330
0
100
AcDbSymbolTable
 70
     0
  0
ENDTAB
  0
TABLE
  2
UCS
  5
7
330
0
100
AcDbSymbolTable
 70
     0
  0
ENDTAB
  0
TABLE
  2
APPID
  5
9
330
0
100
AcDbSymbolTable
 70
     1
  0
APPID
  5
12
330
9
100
AcDbSymbolTableRecord
100
AcDbRegAppTableRecord
  2
ACAD
 70
     0
  0
ENDTAB
  0
TABLE
  2
DIMSTYLE
  5
A
330
0
100
AcDbSymbolTable
 70
     1
100
AcDbDimStyleTable
  0
DIMSTYLE
105
27
330
A
100
AcDbSymbolTableRecord
100
AcDbDimStyleTableRecord
  2
ISO-25
 70
     0
 41
2.5
 42
0.625
 43
3.75
 44
1.25
 73
     0
 74
     0
 77
     1
 78
     8
140
2.5
141
2.5
143
0.0393700787
147
0.625
171
     3
172
     1
178
     0
271
     2
272
     2
274
     3
278
    44
283
     0
284
     8
340
11
  0
ENDTAB
  0
TABLE
  2
BLOCK_RECORD
  5
1
330
0
100
AcDbSymbolTable
 70
     1
  0
BLOCK_RECORD
  5
1F
330
1
100
AcDbSymbolTableRecord
100
AcDbBlockTableRecord
  2
*Model_Space
340
22
  0
BLOCK_RECORD
  5
1B
330
1
100
AcDbSymbolTableRecord
100
AcDbBlockTableRecord
  2
*Paper_Space
340
1E
  0
BLOCK_RECORD
  5
23
330
1
100
AcDbSymbolTableRecord
100
AcDbBlockTableRecord
  2
*Paper_Space0
340
26
  0
ENDTAB
  0
ENDSEC
  0
SECTION
  2
BLOCKS
  0
BLOCK
  5
20
330
1F
100
AcDbEntity
  8
0
100
AcDbBlockBegin
  2
*Model_Space
 70
     0
 10
0.0
 20
0.0
 30
0.0
  3
*Model_Space
  1

  0
ENDBLK
  5
21
330
1F
100
AcDbEntity
  8
0
100
AcDbBlockEnd
  0
BLOCK
  5
1C
330
1B
100
AcDbEntity
 67
     1
  8
0
100
AcDbBlockBegin
  2
*Paper_Space
 70
     0
 10
0.0
 20
0.0
 30
0.0
  3
*Paper_Space
  1

  0
ENDBLK
  5
1D
330
1B
100
AcDbEntity
 67
     1
  8
0
100
AcDbBlockEnd
  0
BLOCK
  5
24
330
23
100
AcDbEntity
  8
0
100
AcDbBlockBegin
  2
*Paper_Space0
 70
     0
 10
0.0
 20
0.0
 30
0.0
  3
*Paper_Space0
  1

  0
ENDBLK
  5
25
330
23
100
AcDbEntity
  8
0
100
AcDbBlockEnd
  0
ENDSEC
  0
SECTION
  2
ENTITIES
  0
CIRCLE
  5
83
330
1F
100
AcDbEntity
  8
0
  6
Continuous
 62
     7
370
    25
100
AcDbCircle
 10
140.3672467888
 20
113.899880615
 30
0.0
 40
449.9999999999999
  0
CIRCLE
  5
84
330
1F
100
AcDbEntity
  8
0
  6
Continuous
 62
     7
370
    25
100
AcDbCircle
 10
140.3672467888
 20
113.899880615
 30
0.0
 40
396.6999999999999
  0
CIRCLE
  5
85
330
1F
100
AcDbEntity
  8
0
  6
Continuous
 62
     7
370
    25
100
AcDbCircle
 10
140.3672467888
 20
113.899880615
 30
0.0
 40
473.5
  0
CIRCLE
  5
86
330
1F
100
AcDbEntity
  8
0
  6
Continuous
 62
     7
370
    25
100
AcDbCircle
 10
140.3672467888
 20
113.899880615
 30
0.0
 40
502.4999999999999
  0
LINE
  5
87
330
1F
100
AcDbEntity
  8
0
  6
Continuous
 62
     7
370
    25
100
AcDbLine
 10
642.8672467888
 20
913.0726025437
 30
0.0
 11
642.8672467888
 21
973.0726025437
 31
0.0
  0
LINE
  5
88
330
1F
100
AcDbEntity
  8
0
  6
Continuous
 62
     7
370
    25
100
AcDbLine
 10
-362.1327532112
 20
973.0726025437
 30
0.0
 11
-362.1327532112
 21
913.0726025437
 31
0.0
  0
LINE
  5
89
330
1F
100
AcDbEntity
  8
0
  6
Continuous
 62
     7
370
    25
100
AcDbLine
 10
613.8672467888
 20
973.0726025437
 30
0.0
 11
590.3672467888
 21
1075.0726025437
 31
0.0
  0
LINE
  5
8A
330
1F
100
AcDbEntity
  8
0
  6
Continuous
 62
     7
370
    25
100
AcDbLine
 10
-309.6327532112
 20
1075.0726025437
 30
0.0
 11
-333.1327532112
 21
973.0726025437
 31
0.0
  0
LINE
  5
8B
330
1F
100
AcDbEntity
  8
0
  6
Continuous
 62
     7
370
    25
100
AcDbLine
 10
590.3672467888
 20
1075.0726025437
 30
0.0
 11
590.3672467888
 21
1420.0726025437
 31
0.0
  0
LINE
  5
8C
330
1F
100
AcDbEntity
  8
0
  6
Continuous
 62
     7
370
    25
100
AcDbLine
 10
-309.6327532112
 20
1420.0726025437
 30
0.0
 11
-309.6327532112
 21
1075.0726025437
 31
0.0
  0
LINE
  5
8D
330
1F
100
AcDbEntity
  8
0
  6
Continuous
 62
     7
370
    25
100
AcDbLine
 10
642.8672467888
 20
913.0726025437
 30
0.0
 11
-362.1327532112
 21
913.0726025437
 31
0.0
  0
LINE
  5
8E
330
1F
100
AcDbEntity
  8
0
  6
Continuous
 62
     7
370
    25
100
AcDbLine
 10
642.8672467888
 20
973.0726025437
 30
0.0
 11
-362.1327532112
 21
973.0726025437
 31
0.0
  0
LINE
  5
8F
330
1F
100
AcDbEntity
  8
0
  6
Continuous
 62
     7
370
    25
100
AcDbLine
 10
590.3672467888
 20
1075.0726025437
 30
0.0
 11
-309.6327532112
 21
1075.0726025437
 31
0.0
  0
LINE
  5
90
330
1F
100
AcDbEntity
  8
0
  6
Continuous
 62
     7
370
    25
100
AcDbLine
 10
590.3672467888
 20
1420.0726025437
 30
0.0
 11
-309.6327532112
 21
1420.0726025437
 31
0.0
  0
LINE
  5
91
330
1F
100
AcDbEntity
  8
0
  6
Continuous
 62
     7
370
    25
100
AcDbLine
 10
-888.1999750997
 20
616.399880615
 30
0.0
 11
-948.1999750997
 21
616.399880615
 31
0.0
  0
LINE
  5
92
330
1F
100
AcDbEntity
  8
0
  6
Continuous
 62
     7
370
    25
100
AcDbLine
 10
-948.1999750997
 20
-388.600119385
 30
0.0
 11
-888.1999750997
 21
-388.600119385
 31
0.0
  0
LINE
  5
93
330
1F
100
AcDbEntity
  8
0
  6
Continuous
 62
     7
370
    25
100
AcDbLine
 10
-948.1999750997
 20
587.399880615
 30
0.0
 11
-1050.1999750997
 21
563.899880615
 31
0.0
  0
LINE
  5
94
330
1F
100
AcDbEntity
  8
0
  6
Continuous
 62
     7
370
    25
100
AcDbLine
 10
-1050.1999750997
 20
-336.100119385
 30
0.0
 11
-948.1999750997
 21
-359.600119385
 31
0.0
  0
LINE
  5
95
330
1F
100
AcDbEntity
  8
0
  6
Continuous
 62
     7
370
    25
100
AcDbLine
 10
-1050.1999750997
 20
563.899880615
 30
0.0
 11
-1395.1999750997
 21
563.899880615
 31
0.0
  0
LINE
  5
96
330
1F
100
AcDbEntity
  8
0
  6
Continuous
 62
     7
370
    25
100
AcDbLine
 10
-1395.1999750997
 20
-336.100119385
 30
0.0
 11
-1050.1999750997
 21
-336.100119385
 31
0.0
  0
LINE
  5
97
330
1F
100
AcDbEntity
  8
0
  6
Continuous
 62
     7
370
    25
100
AcDbLine
 10
-888.1999750997
 20
616.399880615
 30
0.0
 11
-888.1999750997
 21
-388.600119385
 31
0.0
  0
LINE
  5
98
330
1F
100
AcDbEntity
  8
0
  6
Continuous
 62
     7
370
    25
100
AcDbLine
 10
-948.1999750997
 20
616.399880615
 30
0.0
 11
-948.1999750997
 21
-388.600119385
 31
0.0
  0
LINE
  5
99
330
1F
100
AcDbEntity
  8
0
  6
Continuous
 62
     7
370
    25
100
AcDbLine
 10
-1050.1999750997
 20
563.899880615
 30
0.0
 11
-1050.1999750997
 21
-336.100119385
 31
0.0
  0
LINE
  5
9A
330
1F
100
AcDbEntity
  8
0
  6
Continuous
 62
     7
370
    25
100
AcDbLine
 10
-1395.1999750997
 20
563.899880615
 30
0.0
 11
-1395.1999750997
 21
-336.100119385
 31
0.0
  0
LINE
  5
9B
330
1F
100
AcDbEntity
  8
0
  6
Continuous
 62
     7
370
    25
100
AcDbLine
 10
-362.1327532112
 20
-1063.8092447453
 30
0.0
 11
-362.1327532112
 21
-1123.8092447453
 31
0.0
  0
LINE
  5
9C
330
1F
100
AcDbEntity
  8
0
  6
Continuous
 62
     7
370
    25
100
AcDbLine
 10
642.8672467888
 20
-1123.8092447453
 30
0.0
 11
642.8672467888
 21
-1063.8092447453
 31
0.0
  0
LINE
  5
9D
330
1F
100
AcDbEntity
  8
0
  6
Continuous
 62
     7
370
    25
100
AcDbLine
 10
-333.1327532112
 20
-1123.8092447453
 30
0.0
 11
-309.6327532112
 21
-1225.8092447453
 31
0.0
  0
LINE
  5
9E
330
1F
100
AcDbEntity
  8
0
  6
Continuous
 62
     7
370
    25
100
AcDbLine
 10
590.3672467888
 20
-1225.8092447453
 30
0.0
 11
613.8672467888
 21
-1123.8092447453
 31
0.0
  0
LINE
  5
9F
330
1F
100
AcDbEntity
  8
0
  6
Continuous
 62
     7
370
    25
100
AcDbLine
 10
-309.6327532112
 20
-1225.8092447453
 30
0.0
 11
-309.6327532112
 21
-1570.8092447453
 31
0.0
  0
LINE
  5
A0
330
1F
100
AcDbEntity
  8
0
  6
Continuous
 62
     7
370
    25
100
AcDbLine
 10
590.3672467888
 20
-1570.8092447453
 30
0.0
 11
590.3672467888
 21
-1225.8092447453
 31
0.0
  0
LINE
  5
A1
330
1F
100
AcDbEntity
  8
0
  6
Continuous
 62
     7
370
    25
100
AcDbLine
 10
-362.1327532112
 20
-1063.8092447453
 30
0.0
 11
642.8672467888
 21
-1063.8092447453
 31
0.0
  0
LINE
  5
A2
330
1F
100
AcDbEntity
  8
0
  6
Continuous
 62
     7
370
    25
100
AcDbLine
 10
-362.1327532112
 20
-1123.8092447453
 30
0.0
 11
642.8672467888
 21
-1123.8092447453
 31
0.0
  0
LINE
  5
A3
330
1F
100
AcDbEntity
  8
0
  6
Continuous
 62
     7
370
    25
100
AcDbLine
 10
-309.6327532112
 20
-1225.8092447453
 30
0.0
 11
590.3672467888
 21
-1225.8092447453
 31
0.0
  0
LINE
  5
A4
330
1F
100
AcDbEntity
  8
0
  6
Continuous
 62
     7
370
    25
100
AcDbLine
 10
-309.6327532112
 20
-1570.8092447453
 30
0.0
 11
590.3672467888
 21
-1570.8092447453
 31
0.0
  0
LINE
  5
A5
330
1F
100
AcDbEntity
  8
0
  6
Continuous
 62
     7
370
    25
100
AcDbLine
 10
1241.595586343
 20
-388.600119385
 30
0.0
 11
1301.595586343
 21
-388.600119385
 31
0.0
  0
LINE
  5
A6
330
1F
100
AcDbEntity
  8
0
  6
Continuous
 62
     7
370
    25
100
AcDbLine
 10
1301.595586343
 20
616.399880615
 30
0.0
 11
1241.595586343
 21
616.399880615
 31
0.0
  0
LINE
  5
A7
330
1F
100
AcDbEntity
  8
0
  6
Continuous
 62
     7
370
    25
100
AcDbLine
 10
1301.595586343
 20
-359.600119385
 30
0.0
 11
1403.595586343
 21
-336.100119385
 31
0.0
  0
LINE
  5
A8
330
1F
100
AcDbEntity
  8
0
  6
Continuous
 62
     7
370
    25
100
AcDbLine
 10
1403.595586343
 20
563.899880615
 30
0.0
 11
1301.595586343
 21
587.399880615
 31
0.0
  0
LINE
  5
A9
330
1F
100
AcDbEntity
  8
0
  6
Continuous
 62
     7
370
    25
100
AcDbLine
 10
1403.595586343
 20
-336.100119385
 30
0.0
 11
1748.595586343
 21
-336.100119385
 31
0.0
  0
LINE
  5
AA
330
1F
100
AcDbEntity
  8
0
  6
Continuous
 62
     7
370
    25
100
AcDbLine
 10
1748.595586343
 20
563.899880615
 30
0.0
 11
1403.595586343
 21
563.899880615
 31
0.0
  0
LINE
  5
AB
330
1F
100
AcDbEntity
  8
0
  6
Continuous
 62
     7
370
    25
100
AcDbLine
 10
1241.595586343
 20
113.899880615
 30
0.0
 11
1241.595586343
 21
616.399880615
 31
0.0
  0
LINE
  5
AC
330
1F
100
AcDbEntity
  8
0
  6
Continuous
 62
     7
370
    25
100
AcDbLine
 10
1241.595586343
 20
-388.600119385
 30
0.0
 11
1241.595586343
 21
113.899880615
 31
0.0
  0
LINE
  5
AD
330
1F
100
AcDbEntity
  8
0
  6
Continuous
 62
     7
370
    25
100
AcDbLine
 10
1301.595586343
 20
113.899880615
 30
0.0
 11
1301.595586343
 21
616.399880615
 31
0.0
  0
LINE
  5
AE
330
1F
100
AcDbEntity
  8
0
  6
Continuous
 62
     7
370
    25
100
AcDbLine
 10
1301.595586343
 20
-388.600119385
 30
0.0
 11
1301.595586343
 21
113.899880615
 31
0.0
  0
LINE
  5
AF
330
1F
100
AcDbEntity
  8
0
  6
Continuous
 62
     7
370
    25
100
AcDbLine
 10
1403.595586343
 20
113.899880615
 30
0.0
 11
1403.595586343
 21
563.899880615
 31
0.0
  0
LINE
  5
B0
330
1F
100
AcDbEntity
  8
0
  6
Continuous
 62
     7
370
    25
100
AcDbLine
 10
1403.595586343
 20
-336.100119385
 30
0.0
 11
1403.595586343
 21
113.899880615
 31
0.0
  0
LINE
  5
B1
330
1F
100
AcDbEntity
  8
0
  6
Continuous
 62
     7
370
    25
100
AcDbLine
 10
1748.595586343
 20
113.899880615
 30
0.0
 11
1748.595586343
 21
563.899880615
 31
0.0
  0
LINE
  5
B2
330
1F
100
AcDbEntity
  8
0
  6
Continuous
 62
     7
370
    25
100
AcDbLine
 10
1748.595586343
 20
-336.100119385
 30
0.0
 11
1748.595586343
 21
113.899880615
 31
0.0
  0
LINE
  5
B3
330
1F
100
AcDbEntity
  8
0
  6
Continuous
 62
     7
370
    25
100
AcDbLine
 10
1618.3385264972
 20
-696.8604068482
 30
0.0
 11
1374.3866869878
 21
-556.0300075587
 31
0.0
  0
LINE
  5
B4
330
1F
100
AcDbEntity
  8
0
  6
Continuous
 62
     7
370
    25
100
AcDbLine
 10
924.4232573016
 20
-1335.4739837014
 30
0.0
 11
1168.375096811
 21
-1476.3043829908
 31
0.0
  0
LINE
  5
B5
330
1F
100
AcDbEntity
  8
0
  6
Continuous
 62
     7
370
    25
100
AcDbLine
 10
1660.4737206741
 20
-701.3550529139
 30
0.0
 11
1599.8846778058
 21
-686.2072267579
 31
0.0
  0
LINE
  5
B6
330
1F
100
AcDbEntity
  8
0
  6
Continuous
 62
     7
370
    25
100
AcDbLine
 10
1149.9212481196
 20
-1465.6512029005
 30
0.0
 11
1193.3383847485
 21
-1510.5448661493
 31
0.0
  0
LINE
  5
B7
330
1F
100
AcDbEntity
  8
0
  6
Continuous
 62
     7
370
    25
100
AcDbLine
 10
1759.1376917811
 20
-717.5218986308
 30
0.0
 11
1716.7112849099
 21
-693.0296552761
 31
0.0
  0
LINE
  5
B8
330
1F
100
AcDbEntity
  8
0
  6
Continuous
 62
     7
370
    25
100
AcDbLine
 10
1214.2521217603
 20
-1563.4087619687
 30
0.0
 11
1256.6785286315
 21
-1587.9010053234
 31
0.0
  0
LWPOLYLINE
  5
B9
330
1F
100
AcDbEntity
  8
0
  6
Continuous
 62
     7
370
    25
100
AcDbPolyline
 90
      226
 70
   128
 43
0.0
 10
831.2069206108
 20
-1129.4438207902
 10
831.3309812452
 20
-1119.1125812117
 10
831.7030664099
 20
-1108.6461602634
 10
832.322885964
 20
-1098.0527193455
 10
833.1899565909
 20
-1087.3405189045
 10
834.3036021749
 20
-1076.5179119922
 10
835.6629543287
 20
-1065.5933377518
 10
837.2669530704
 20
-1054.5753148378
 10
839.1143476501
 20
-1043.4724347729
 10
841.203697525
 20
-1032.2933552491
 10
843.5333734829
 20
-1021.0467933763
 10
846.1015589127
 20
-1009.7415188851
 10
848.9062512204
 20
-998.3863472885
 10
851.9452633916
 20
-986.9901330078
 10
855.2162256958
 20
-975.561762468
 10
858.7165875351
 20
-964.1101471688
 10
862.4436194327
 20
-952.6442167352
 10
866.394415161
 20
-941.1729119549
 10
870.5658940086
 20
-929.7051778063
 10
874.9548031816
 20
-918.2499564836
 10
879.5577203407
 20
-906.8161804237
 10
884.3710562695
 20
-895.4127653413
 10
889.3910576736
 20
-884.0486032764
 10
894.6138101067
 20
-872.7325556608
 10
900.0352410237
 20
-861.473446408
 10
905.6511229558
 20
-850.2800550327
 10
911.4570768073
 20
-839.1611098049
 10
917.4485752698
 20
-828.1252809435
 10
923.6209463533
 20
-817.1811738559
 10
929.9693770283
 20
-806.3373224276
 10
936.4889169796
 20
-795.6021823678
 10
943.174482466
 20
-784.9841246158
 10
950.0208602848
 20
-774.4914288135
 10
957.0227118364
 20
-764.1322768497
 10
964.1745772875
 20
-753.9147464792
 10
971.4708798287
 20
-743.8468050251
 10
978.9059300227
 20
-733.9363031652
 10
986.473930241
 20
-724.1909688107
 10
994.1689791848
 20
-714.6184010801
 10
1001.9850764862
 20
-705.226064374
 10
1009.9161273877
 20
-696.0212825538
 10
1017.9559474945
 20
-687.0112332316
 10
1026.0982675966
 20
-678.2029421729
 10
1034.3367385578
 20
-669.603277818
 10
1042.6649362662
 20
-661.2189459264
 10
1051.0763666437
 20
-653.0564843481
 10
1059.5644707101
 20
-645.122257925
 10
1068.1226296969
 20
-637.4224535281
 10
1076.7441702094
 20
-629.9630752335
 10
1085.4223694296
 20
-622.7499396398
 10
1094.1504603587
 20
-615.7886713332
 10
1102.921637094
 20
-609.0846985014
 10
1111.7290601357
 20
-602.6432487007
 10
1120.5658617203
 20
-596.4693447799
 10
1129.4251511757
 20
-590.5678009636
 10
1138.3000202945
 20
-584.9432190981
 10
1147.1835487206
 20
-579.5999850631
 10
1156.068809346
 20
-574.5422653519
 10
1164.9488737116
 20
-569.7740038221
 10
1173.8168174102
 20
-565.2989186206
 10
1182.6657254863
 20
-561.1204992843
 10
1191.4886978274
 20
-557.2420040188
 10
1200.2788545452
 20
-553.6664571581
 10
1209.0293413398
 20
-550.3966468061
 10
1217.7333348448
 20
-547.4351226626
 10
1226.3840479479
 20
-544.7841940349
 10
1234.9747350833
 20
-542.4459280376
 10
1243.4986974916
 20
-540.42214798
 10
1251.9492884433
 20
-538.714431945
 10
1260.3199184217
 20
-537.3241115582
 10
1268.6040602614
 20
-536.2522709496
 10
1276.7952542378
 20
-535.4997459082
 10
1284.8871131042
 20
-535.0671232305
 10
1292.8733270725
 20
-534.9547402626
 10
1300.7476687332
 20
-535.1626846374
 10
1308.5039979117
 20
-535.6907942061
 10
1316.1362664556
 20
-536.5386571647
 10
1323.6385229517
 20
-537.7056123752
 10
1331.0049173659
 20
-539.190749881
 10
1338.2297056055
 20
-540.9929116167
 10
1345.3072539979
 20
-543.1106923106
 10
1352.2320436837
 20
-545.5424405811
 10
1358.9986749204
 20
-548.286260224
 10
1365.6018712924
 20
-551.3400116914
 10
1372.0364838258
 20
-554.7013137596
 10
1378.2974950033
 20
-558.3675453865
 10
1384.3800226767
 20
-562.3358477549
 10
1390.2793238739
 20
-566.603126502
 10
1395.9907984974
 20
-571.1660541321
 10
1401.5099929109
 20
-576.0210726116
 10
1406.8326034127
 20
-581.1643961432
 10
1411.9544795912
 20
-586.5920141177
 10
1416.8716275615
 20
-592.299694242
 10
1421.5802130796
 20
-598.2829858389
 10
1426.0765645319
 20
-604.5372233175
 10
1430.357175799
 20
-611.0575298116
 10
1434.4187089889
 20
-617.8388209822
 10
1438.2579970403
 20
-624.8758089826
 10
1441.8720461917
 20
-632.1630065811
 10
1445.2580383164
 20
-639.6947314404
 10
1448.4133331196
 20
-647.4651105478
 10
1451.3354701973
 20
-655.4680847955
 10
1454.0221709549
 20
-663.697413705
 10
1456.4713403839
 20
-672.146680293
 10
1458.6810686958
 20
-680.8092960757
 10
1460.6496328108
 20
-689.6785062059
 10
1462.3754977019
 20
-698.7473947402
 10
1463.8573175915
 20
-708.0088900322
 10
1465.0939370012
 20
-717.4557702465
 10
1466.0843916521
 20
-727.0806689901
 10
1466.8279092177
 20
-736.8760810563
 10
1467.3239099252
 20
-746.8343682776
 10
1467.5720070083
 20
-756.9477654812
 10
1467.5720070083
 20
-767.208386544
 10
1467.3239099252
 20
-777.6082305425
 10
1466.8279092177
 20
-788.1391879911
 10
1466.0843916521
 20
-798.793047166
 10
1465.0939370012
 20
-809.5615005083
 10
1463.8573175915
 20
-820.436151102
 10
1462.3754977019
 20
-831.4085192216
 10
1460.6496328108
 20
-842.4700489447
 10
1458.6810686958
 20
-853.6121148229
 10
1456.4713403839
 20
-864.8260286086
 10
1454.0221709549
 20
-876.1030460291
 10
1451.3354701973
 20
-887.4343736053
 10
1448.4133331196
 20
-898.811175509
 10
1445.2580383164
 20
-910.2245804522
 10
1441.8720461917
 20
-921.665688605
 10
1438.2579970403
 20
-933.1255785356
 10
1434.4187089889
 20
-944.5953141664
 10
1430.357175799
 20
-956.0659517426
 10
1426.0765645319
 20
-967.528546806
 10
1421.5802130796
 20
-978.97416117
 10
1416.8716275615
 20
-990.3938698885
 10
1411.9544795912
 20
-1001.7787682164
 10
1406.8326034127
 20
-1013.1199785524
 10
1401.5099929109
 20
-1024.4086573617
 10
1395.9907984973
 20
-1035.6360020723
 10
1390.2793238739
 20
-1046.7932579384
 10
1384.3800226767
 20
-1057.8717248676
 10
1378.2974950033
 20
-1068.8627642046
 10
1372.0364838258
 20
-1079.7578054674
 10
1365.6018712924
 20
-1090.5483530308
 10
1358.9986749204
 20
-1101.2259927502
 10
1352.2320436837
 20
-1111.7823985235
 10
1345.3072539978
 20
-1122.2093387828
 10
1338.2297056054
 20
-1132.498682914
 10
1331.0049173659
 20
-1142.6424075959
 10
1323.6385229517
 20
-1152.6326030571
 10
1316.1362664556
 20
-1162.4614792438
 10
1308.5039979117
 20
-1172.1213718939
 10
1300.7476687332
 20
-1181.6047485138
 10
1292.8733270725
 20
-1190.9042142516
 10
1284.8871131042
 20
-1200.0125176636
 10
1276.7952542378
 20
-1208.922556369
 10
1268.6040602614
 20
-1217.6273825874
 10
1260.3199184217
 20
-1226.1202085572
 10
1251.9492884433
 20
-1234.3944118283
 10
1243.4986974916
 20
-1242.4435404258
 10
1234.9747350833
 20
-1250.2613178814
 10
1226.3840479479
 20
-1257.8416481274
 10
1217.7333348448
 20
-1265.1786202502
 10
1209.0293413398
 20
-1272.2665130997
 10
1200.2788545452
 20
-1279.0997997502
 10
1191.4886978274
 20
-1285.6731518105
 10
1182.6657254863
 20
-1291.9814435782
 10
1173.8168174102
 20
-1298.0197560373
 10
1164.9488737116
 20
-1303.7833806932
 10
1156.068809346
 20
-1309.2678232449
 10
1147.1835487206
 20
-1314.4688070891
 10
1138.3000202945
 20
-1319.3822766549
 10
1129.4251511757
 20
-1324.0044005667
 10
1120.5658617203
 20
-1328.3315746312
 10
1111.7290601357
 20
-1332.3604246482
 10
1102.921637094
 20
-1336.0878090418
 10
1094.1504603587
 20
-1339.5108213096
 10
1085.4223694296
 20
-1342.6267922897
 10
1076.7441702094
 20
-1345.4332922417
 10
1068.1226296969
 20
-1347.9281327412
 10
1059.56447071
 20
-1350.1093683868
 10
1051.0763666437
 20
-1351.9752983165
 10
1042.6649362662
 20
-1353.5244675342
 10
1034.3367385578
 20
-1354.7556680444
 10
1026.0982675966
 20
-1355.667939794
 10
1017.9559474945
 20
-1356.2605714208
 10
1009.9161273877
 20
-1356.5331008087
 10
1001.9850764862
 20
-1356.4853154473
 10
994.1689791847
 20
-1356.1172525983
 10
986.473930241
 20
-1355.429199266
 10
978.9059300227
 20
-1354.4216919737
 10
971.4708798287
 20
-1353.0955163452
 10
964.1745772875
 20
-1351.4517064925
 10
957.0227118364
 20
-1349.4915442089
 10
950.0208602848
 20
-1347.2165579702
 10
943.174482466
 20
-1344.6285217421
 10
936.4889169796
 20
-1341.7294535974
 10
929.9693770283
 20
-1338.5216141423
 10
923.6209463533
 20
-1335.0075047534
 10
917.4485752698
 20
-1331.1898656276
 10
911.4570768073
 20
-1327.071673645
 10
905.6511229558
 20
-1322.6561400479
 10
900.0352410237
 20
-1317.9467079365
 10
894.6138101067
 20
-1312.9470495844
 10
889.3910576736
 20
-1307.6610635746
 10
884.3710562695
 20
-1302.0928717601
 10
879.5577203407
 20
-1296.2468160495
 10
874.9548031816
 20
-1290.127455021
 10
870.5658940086
 20
-1283.7395603683
 10
866.394415161
 20
-1277.0881131795
 10
862.4436194327
 20
-1270.1783000531
 10
858.7165875351
 20
-1263.0155090535
 10
855.2162256958
 20
-1255.6053255096
 10
851.9452633916
 20
-1247.9535276597
 10
848.9062512204
 20
-1240.0660821456
 10
846.1015589127
 20
-1231.9491393599
 10
843.5333734829
 20
-1223.6090286506
 10
841.203697525
 20
-1215.0522533851
 10
839.1143476501
 20
-1206.2854858794
 10
837.2669530704
 20
-1197.3155621949
 10
835.6629543287
 20
-1188.1494768085
 10
834.3036021749
 20
-1178.7943771577
 10
833.1899565909
 20
-1169.2575580679
 10
832.322885964
 20
-1159.5464560637
 10
831.7030664099
 20
-1149.6686435704
 10
831.3309812452
 20
-1139.6318230089
 10
831.2069206108
 20
-1129.4438207902
  0
LWPOLYLINE
  5
BA
330
1F
100
AcDbEntity
  8
0
  6
Continuous
 62
     7
370
    25
100
AcDbPolyline
 90
      212
 70
   128
 43
0.0
 10
868.895712048
 20
-1107.6865446101
 10
869.0200718268
 20
-1097.970395223
 10
869.3930408968
 20
-1088.119278124
 10
870.0142885571
 20
-1078.1419280176
 10
870.883263965
 20
-1068.0471915355
 10
871.9991966249
 20
-1057.8440193925
 10
873.3610970711
 20
-1047.5414584501
 10
874.9677577454
 20
-1037.1486436953
 10
876.8177540675
 20
-1026.6747901403
 10
878.9094456986
 20
-1016.1291846523
 10
881.2409779952
 20
-1005.5211777188
 10
883.8102836543
 20
-994.8601751568
 10
886.6150845458
 20
-984.1556297732
 10
889.6528937329
 20
-973.4170329829
 10
892.9210176767
 20
-962.6539063933
 10
896.416558625
 20
-951.8757933617
 10
900.1364171814
 20
-941.0922505334
 10
904.0772950535
 20
-930.3128393681
 10
908.2356979773
 20
-919.5471176621
 10
912.6079388155
 20
-908.8046310738
 10
917.1901408269
 20
-898.0949046594
 10
921.9782411038
 20
-887.4274344279
 10
926.9679941743
 20
-876.8116789207
 10
932.1549757666
 20
-866.2570508253
 10
937.5345867322
 20
-855.7729086294
 10
943.1020571236
 20
-845.3685483227
 10
948.8524504235
 20
-835.0531951545
 10
954.7806679224
 20
-824.8359954544
 10
960.8814532388
 20
-814.7260085217
 10
967.1493969806
 20
-804.7321985933
 10
973.5789415409
 20
-794.8634268955
 10
980.1643860258
 20
-785.1284437865
 10
986.8998913098
 20
-775.535880998
 10
993.7794852124
 20
-766.0942439818
 10
1000.797067794
 20
-756.8119043681
 10
1007.9464167644
 20
-747.6970925426
 10
1015.2211929998
 20
-738.7578903487
 10
1022.6149461637
 20
-730.0022239222
 10
1030.1211204261
 20
-721.4378566625
 10
1037.7330602764
 20
-713.0723823498
 10
1045.4440164249
 20
-704.9132184115
 10
1053.2471517865
 20
-696.9675993454
 10
1061.135547544
 20
-689.2425703052
 10
1069.1022092818
 20
-681.7449808539
 10
1077.1400731882
 20
-674.48147889
 10
1085.2420123187
 20
-667.4585047535
 10
1093.400842915
 20
-660.6822855152
 10
1101.6093307748
 20
-654.1588294553
 10
1109.8601976661
 20
-647.8939207363
 10
1118.1461277807
 20
-641.8931142739
 10
1126.4597742207
 20
-636.161730812
 10
1134.793765513
 20
-630.7048522048
 10
1143.1407121454
 20
-625.5273169108
 10
1151.4932131184
 20
-620.633715703
 10
1159.8438625076
 20
-616.0283875978
 10
1168.1852560307
 20
-611.7154160082
 10
1176.5099976119
 20
-607.6986251233
 10
1184.8107059403
 20
-603.9815765167
 10
1193.0800210147
 20
-600.5675659895
 10
1201.3106106695
 20
-597.4596206474
 10
1209.4951770755
 20
-594.6604962168
 10
1217.6264632113
 20
-592.1726746015
 10
1225.6972592974
 20
-589.998361682
 10
1233.7004091892
 20
-588.1394853595
 10
1241.6288167221
 20
-586.5976938465
 10
1249.4754520033
 20
-585.3743542057
 10
1257.2333576452
 20
-584.4705511374
 10
1264.8956549342
 20
-583.8870860179
 10
1272.4555499299
 20
-583.6244761892
 10
1279.9063394892
 20
-583.6829544999
 10
1287.2414172094
 20
-584.062469099
 10
1294.4542792865
 20
-584.7626834816
 10
1301.5385302814
 20
-585.7829767877
 10
1308.4878887909
 20
-587.1224443523
 10
1315.2961930172
 20
-588.7798985077
 10
1321.957406231
 20
-590.7538696367
 10
1328.4656221248
 20
-593.0426074752
 10
1334.8150700491
 20
-595.6440826649
 10
1341.0001201296
 20
-598.5559885519
 10
1347.015288259
 20
-601.7757432322
 10
1352.8552409592
 20
-605.3004918414
 10
1358.5148001108
 20
-609.1271090853
 10
1363.9889475442
 20
-613.2522020117
 10
1369.2728294891
 20
-617.6721130183
 10
1374.361760878
 20
-622.3829230961
 10
1379.2512295008
 20
-627.3804553043
 10
1383.936900005
 20
-632.6602784737
 10
1388.4146177404
 20
-638.2177111356
 10
1392.6804124424
 20
-644.0478256732
 10
1396.7305017525
 20
-650.1454526901
 10
1400.5612945721
 20
-656.5051855945
 10
1404.1693942466
 20
-663.1213853927
 10
1407.5516015767
 20
-669.9881856891
 10
1410.704917656
 20
-677.0994978877
 10
1413.6265465288
 20
-684.449016591
 10
1416.3138976703
 20
-692.0302251904
 10
1418.764588283
 20
-699.8364016446
 10
1420.9764454092
 20
-707.8606244396
 10
1422.9475078585
 20
-716.095778726
 10
1424.676027946
 20
-724.5345626274
 10
1426.1604730422
 20
-733.169493715
 10
1427.3995269321
 20
-741.9929156417
 10
1428.3920909819
 20
-750.997004931
 10
1429.1372851134
 20
-760.173777914
 10
1429.6344485842
 20
-769.5150978077
 10
1429.8831405736
 20
-779.0126819304
 10
1429.8831405736
 20
-788.6581090452
 10
1429.6344485842
 20
-798.4428268271
 10
1429.1372851134
 20
-808.358159446
 10
1428.3920909819
 20
-818.3953152593
 10
1427.3995269321
 20
-828.5453946075
 10
1426.1604730422
 20
-838.7993977047
 10
1424.676027946
 20
-849.1482326189
 10
1422.9475078585
 20
-859.5827233336
 10
1420.9764454092
 20
-870.0936178834
 10
1418.764588283
 20
-880.6715965581
 10
1416.3138976703
 20
-891.3072801659
 10
1413.6265465288
 20
-901.9912383494
 10
1410.704917656
 20
-912.7139979478
 10
1407.5516015767
 20
-923.4660513962
 10
1404.1693942466
 20
-934.2378651555
 10
1400.5612945721
 20
-945.0198881657
 10
1396.7305017525
 20
-955.8025603147
 10
1392.6804124424
 20
-966.5763209148
 10
1388.4146177404
 20
-977.3316171798
 10
1383.936900005
 20
-988.0589126954
 10
1379.2512295008
 20
-998.7486958748
 10
1374.361760878
 20
-1009.3914883921
 10
1369.2728294891
 20
-1019.9778535869
 10
1363.9889475442
 20
-1030.4984048312
 10
1358.5148001108
 20
-1040.9438138525
 10
1352.8552409592
 20
-1051.3048190045
 10
1347.015288259
 20
-1061.5722334796
 10
1341.0001201296
 20
-1071.7369534544
 10
1334.8150700491
 20
-1081.7899661616
 10
1328.4656221248
 20
-1091.7223578818
 10
1321.957406231
 20
-1101.5253218465
 10
1315.2961930172
 20
-1111.1901660473
 10
1308.4878887909
 20
-1120.7083209426
 10
1301.5385302814
 20
-1130.0713470561
 10
1294.4542792864
 20
-1139.2709424596
 10
1287.2414172094
 20
-1148.2989501343
 10
1279.9063394892
 20
-1157.1473652035
 10
1272.4555499299
 20
-1165.80834203
 10
1264.8956549342
 20
-1174.2742011726
 10
1257.2333576452
 20
-1182.5374361957
 10
1249.4754520033
 20
-1190.5907203246
 10
1241.6288167221
 20
-1198.4269129419
 10
1233.7004091892
 20
-1206.0390659193
 10
1225.6972592974
 20
-1213.4204297778
 10
1217.6264632113
 20
-1220.5644596728
 10
1209.4951770755
 20
-1227.4648211968
 10
1201.3106106695
 20
-1234.1153959961
 10
1193.0800210147
 20
-1240.5102871958
 10
1184.8107059403
 20
-1246.6438246283
 10
1176.5099976118
 20
-1252.5105698609
 10
1168.1852560307
 20
-1258.1053210181
 10
1159.8438625076
 20
-1263.4231173937
 10
1151.4932131183
 20
-1268.4592438492
 10
1143.1407121454
 20
-1273.2092349951
 10
1134.793765513
 20
-1277.6688791498
 10
1126.4597742207
 20
-1281.834222074
 10
1118.1461277807
 20
-1285.7015704769
 10
1109.8601976661
 20
-1289.2674952912
 10
1101.6093307748
 20
-1292.528834713
 10
1093.400842915
 20
-1295.4826970057
 10
1085.2420123187
 20
-1298.1264630638
 10
1077.1400731882
 20
-1300.4577887355
 10
1069.1022092817
 20
-1302.4746069008
 10
1061.135547544
 20
-1304.1751293046
 10
1053.2471517865
 20
-1305.5578481421
 10
1045.4440164249
 20
-1306.6215373961
 10
1037.7330602764
 20
-1307.3652539236
 10
1030.1211204261
 20
-1307.7883382923
 10
1022.6149461637
 20
-1307.8904153656
 10
1015.2211929998
 20
-1307.6713946344
 10
1007.9464167644
 20
-1307.1314702983
 10
1000.797067794
 20
-1306.2711210928
 10
993.7794852124
 20
-1305.0911098649
 10
986.8998913098
 20
-1303.592482897
 10
980.1643860258
 20
-1301.7765689788
 10
973.5789415409
 20
-1299.6449782293
 10
967.1493969806
 20
-1297.1996006694
 10
960.8814532388
 20
-1294.4426045454
 10
954.7806679224
 20
-1291.3764344072
 10
948.8524504235
 20
-1288.0038089404
 10
943.1020571236
 20
-1284.3277185557
 10
937.5345867322
 20
-1280.3514227376
 10
932.1549757666
 20
-1276.0784471542
 10
926.9679941743
 20
-1271.512580531
 10
921.9782411038
 20
-1266.6578712916
 10
917.1901408269
 20
-1261.5186239683
 10
912.6079388155
 20
-1256.0993953849
 10
908.2356979773
 20
-1250.4049906169
 10
904.0772950535
 20
-1244.4404587305
 10
900.1364171814
 20
-1238.2110883059
 10
896.416558625
 20
-1231.7224027482
 10
892.9210176767
 20
-1224.9801553897
 10
889.6528937329
 20
-1217.9903243888
 10
886.6150845458
 20
-1210.7591074292
 10
883.8102836543
 20
-1203.2929162247
 10
881.2409779952
 20
-1195.5983708339
 10
878.9094456986
 20
-1187.6822937907
 10
876.8177540675
 20
-1179.5517040548
 10
874.9677577454
 20
-1171.2138107882
 10
873.3610970711
 20
-1162.6760069629
 10
871.9991966249
 20
-1153.9458628059
 10
870.883263965
 20
-1145.031119087
 10
870.0142885571
 20
-1135.9396802551
 10
869.3930408968
 20
-1126.6796074296
 10
869.0200718268
 20
-1117.2591112528
 10
868.895712048
 20
-1107.6865446101
  0
LWPOLYLINE
  5
BB
330
1F
100
AcDbEntity
  8
0
  6
Continuous
 62
     7
370
    25
100
AcDbPolyline
 90
      114
 70
   128
 43
0.0
 10
1618.3385264972
 20
-696.8604068482
 10
1622.2493345126
 20
-699.1979446759
 10
1628.3318621861
 20
-703.1662470443
 10
1634.2311633833
 20
-707.4335257914
 10
1639.9426380067
 20
-711.9964534215
 10
1645.4618324202
 20
-716.8514719011
 10
1650.784442922
 20
-721.9947954326
 10
1655.9063191006
 20
-727.4224134071
 10
1660.8234670709
 20
-733.1300935315
 10
1665.5320525889
 20
-739.1133851283
 10
1670.0284040413
 20
-745.3676226069
 10
1674.3090153084
 20
-751.887929101
 10
1678.3705484983
 20
-758.6692202716
 10
1682.2098365496
 20
-765.706208272
 10
1685.8238857011
 20
-772.9934058706
 10
1689.2098778258
 20
-780.5251307298
 10
1692.365172629
 20
-788.2955098372
 10
1695.2873097067
 20
-796.298484085
 10
1697.9740104642
 20
-804.5278129944
 10
1700.4231798933
 20
-812.9770795825
 10
1702.6329082051
 20
-821.6396953652
 10
1704.6014723202
 20
-830.5089054953
 10
1706.3273372113
 20
-839.5777940296
 10
1707.8091571009
 20
-848.8392893217
 10
1709.0457765105
 20
-858.2861695359
 10
1710.0362311615
 20
-867.9110682795
 10
1710.7797487271
 20
-877.7064803457
 10
1711.2757494346
 20
-887.664767567
 10
1711.5238465177
 20
-897.7781647706
 10
1711.5238465177
 20
-908.0387858334
 10
1711.2757494346
 20
-918.4386298319
 10
1710.7797487271
 20
-928.9695872805
 10
1710.0362311615
 20
-939.6234464554
 10
1709.0457765105
 20
-950.3918997977
 10
1707.8091571009
 20
-961.2665503914
 10
1706.3273372113
 20
-972.2389185111
 10
1704.6014723202
 20
-983.3004482341
 10
1702.6329082051
 20
-994.4425141123
 10
1700.4231798933
 20
-1005.656427898
 10
1697.9740104642
 20
-1016.9334453185
 10
1695.2873097066
 20
-1028.2647728947
 10
1692.365172629
 20
-1039.6415747984
 10
1689.2098778258
 20
-1051.0549797416
 10
1685.8238857011
 20
-1062.4960878945
 10
1682.2098365496
 20
-1073.955977825
 10
1678.3705484983
 20
-1085.4257134558
 10
1674.3090153084
 20
-1096.896351032
 10
1670.0284040413
 20
-1108.3589460955
 10
1665.5320525889
 20
-1119.8045604594
 10
1660.8234670709
 20
-1131.224269178
 10
1655.9063191006
 20
-1142.6091675058
 10
1650.784442922
 20
-1153.9503778418
 10
1645.4618324202
 20
-1165.2390566511
 10
1639.9426380067
 20
-1176.4664013617
 10
1634.2311633833
 20
-1187.6236572278
 10
1628.3318621861
 20
-1198.702124157
 10
1622.2493345126
 20
-1209.693163494
 10
1615.9883233352
 20
-1220.5882047568
 10
1609.5537108018
 20
-1231.3787523202
 10
1602.9505144298
 20
-1242.0563920396
 10
1596.1838831931
 20
-1252.6127978129
 10
1589.2590935072
 20
-1263.0397380723
 10
1582.1815451148
 20
-1273.3290822034
 10
1574.9567568752
 20
-1283.4728068853
 10
1567.590362461
 20
-1293.4630023465
 10
1560.088105965
 20
-1303.2918785332
 10
1552.455837421
 20
-1312.9517711833
 10
1544.6995082426
 20
-1322.4351478032
 10
1536.8251665819
 20
-1331.734613541
 10
1528.8389526136
 20
-1340.8429169531
 10
1520.7470937472
 20
-1349.7529556584
 10
1512.5558997708
 20
-1358.4577818768
 10
1504.2717579311
 20
-1366.9506078466
 10
1495.9011279526
 20
-1375.2248111177
 10
1487.450537001
 20
-1383.2739397153
 10
1478.9265745927
 20
-1391.0917171708
 10
1470.3358874573
 20
-1398.6720474168
 10
1461.6851743541
 20
-1406.0090195396
 10
1452.9811808491
 20
-1413.0969123891
 10
1444.2306940545
 20
-1419.9301990396
 10
1435.4405373368
 20
-1426.5035510999
 10
1426.6175649957
 20
-1432.8118428676
 10
1417.7686569196
 20
-1438.8501553267
 10
1408.9007132209
 20
-1444.6137799826
 10
1400.0206488554
 20
-1450.0982225343
 10
1391.13538823
 20
-1455.2992063785
 10
1382.2518598038
 20
-1460.2126759443
 10
1373.376990685
 20
-1464.8347998561
 10
1364.5177012296
 20
-1469.1619739206
 10
1355.6808996451
 20
-1473.1908239376
 10
1346.8734766033
 20
-1476.9182083312
 10
1338.102299868
 20
-1480.341220599
 10
1329.3742089389
 20
-1483.4571915791
 10
1320.6960097188
 20
-1486.2636915311
 10
1312.0744692063
 20
-1488.7585320306
 10
1303.5163102194
 20
-1490.9397676762
 10
1295.0282061531
 20
-1492.8056976059
 10
1286.6167757755
 20
-1494.3548668236
 10
1278.2885780671
 20
-1495.5860673338
 10
1270.050107106
 20
-1496.4983390834
 10
1261.9077870039
 20
-1497.0909707103
 10
1253.8679668971
 20
-1497.3635000981
 10
1245.9369159955
 20
-1497.3157147368
 10
1238.1208186941
 20
-1496.9476518877
 10
1230.4257697504
 20
-1496.2595985554
 10
1222.8577695321
 20
-1495.2520912631
 10
1215.4227193381
 20
-1493.9259156346
 10
1208.1264167969
 20
-1492.2821057819
 10
1200.9745513457
 20
-1490.3219434984
 10
1193.9726997942
 20
-1488.0469572596
 10
1187.1263219754
 20
-1485.4589210315
 10
1180.440756489
 20
-1482.5598528868
 10
1173.9212165376
 20
-1479.3520134317
 10
1168.375096811
 20
-1476.3043829908
  0
LWPOLYLINE
  5
BC
330
1F
100
AcDbEntity
  8
0
  6
Continuous
 62
     7
370
    25
100
AcDbPolyline
 90
       55
 70
   128
 43
0.0
 10
1139.3918259849
 20
-1263.8406273527
 10
1139.5161857636
 20
-1254.1244779656
 10
1139.8891548337
 20
-1244.2733608667
 10
1140.5104024939
 20
-1234.2960107603
 10
1141.3793779019
 20
-1224.2012742781
 10
1142.4953105618
 20
-1213.9981021351
 10
1143.857211008
 20
-1203.6955411927
 10
1145.4638716822
 20
-1193.3027264379
 10
1147.3138680044
 20
-1182.828872883
 10
1149.4055596354
 20
-1172.283267395
 10
1151.737091932
 20
-1161.6752604614
 10
1154.3063975911
 20
-1151.0142578995
 10
1157.1111984827
 20
-1140.3097125159
 10
1160.1490076697
 20
-1129.5711157256
 10
1163.4171316135
 20
-1118.807989136
 10
1166.9126725619
 20
-1108.0298761044
 10
1170.6325311183
 20
-1097.246333276
 10
1174.5734089904
 20
-1086.4669221107
 10
1178.7318119141
 20
-1075.7012004047
 10
1183.1040527523
 20
-1064.9587138164
 10
1187.6862547637
 20
-1054.248987402
 10
1192.4743550406
 20
-1043.5815171705
 10
1197.4641081111
 20
-1032.9657616633
 10
1202.6510897034
 20
-1022.4111335679
 10
1208.0307006691
 20
-1011.926991372
 10
1213.5981710604
 20
-1001.5226310653
 10
1219.3485643604
 20
-991.2072778972
 10
1225.2767818592
 20
-980.990078197
 10
1231.3775671757
 20
-970.8800912643
 10
1237.6455109175
 20
-960.886281336
 10
1244.0750554777
 20
-951.0175096381
 10
1250.6604999627
 20
-941.2825265291
 10
1257.3960052467
 20
-931.6899637406
 10
1264.2755991493
 20
-922.2483267245
 10
1271.2931817309
 20
-912.9659871108
 10
1278.4425307013
 20
-903.8511752852
 10
1285.7173069367
 20
-894.9119730914
 10
1293.1110601006
 20
-886.1563066648
 10
1300.6172343629
 20
-877.5919394052
 10
1308.2291742133
 20
-869.2264650924
 10
1315.9401303617
 20
-861.0673011541
 10
1323.7432657234
 20
-853.121682088
 10
1331.6316614808
 20
-845.3966530479
 10
1339.5983232186
 20
-837.8990635965
 10
1347.636187125
 20
-830.6355616326
 10
1355.7381262555
 20
-823.6125874961
 10
1363.8969568518
 20
-816.8363682578
 10
1372.1054447116
 20
-810.312912198
 10
1380.3563116029
 20
-804.0480034789
 10
1388.6422417175
 20
-798.0471970165
 10
1396.9558881575
 20
-792.3158135546
 10
1405.2898794498
 20
-786.8589349474
 10
1413.6368260822
 20
-781.6813996535
 10
1421.9893270552
 20
-776.7877984456
 10
1429.7400246091
 20
-772.5037576674
  0
LWPOLYLINE
  5
BD
330
1F
100
AcDbEntity
  8
0
  6
Continuous
 62
     7
370
    25
100
AcDbPolyline
 90
        3
 70
   128
 43
0.0
 10
1139.5660336172
 20
-1275.1543163353
 10
1139.5161857636
 20
-1273.4131939955
 10
1139.3918259849
 20
-1263.8406273527
  0
LWPOLYLINE
  5
BE
330
1F
100
AcDbEntity
  8
0
  6
Continuous
 62
     7
370
    25
100
AcDbPolyline
 90
      130
 70
   128
 43
0.0
 10
1660.4737206741
 20
-701.3550529139
 10
1663.3845687147
 20
-702.1102031991
 10
1670.6562344228
 20
-704.2429764834
 10
1677.7761138742
 20
-706.6894035378
 10
1684.7389398467
 20
-709.4476745179
 10
1691.5395613047
 20
-712.5157488797
 10
1698.1729472102
 20
-715.8913568897
 10
1704.6341902445
 20
-719.5720013037
 10
1710.9185104387
 20
-723.5549592143
 10
1717.0212587096
 20
-727.8372840655
 10
1722.9379202994
 20
-732.4158078322
 10
1728.6641181156
 20
-737.2871433639
 10
1734.195615969
 20
-742.4476868909
 10
1739.5283217077
 20
-747.8936206899
 10
1744.6582902442
 20
-753.6209159085
 10
1749.5817264746
 20
-759.6253355456
 10
1754.2949880852
 20
-765.9024375861
 10
1758.7945882479
 20
-772.4475782868
 10
1763.0771981993
 20
-779.2559156119
 10
1767.1396497035
 20
-786.3224128154
 10
1770.9789373956
 20
-793.6418421667
 10
1774.5922210056
 20
-801.2087888184
 10
1777.9768274588
 20
-809.0176548119
 10
1781.1302528542
 20
-817.062663219
 10
1784.0501643163
 20
-825.3378624156
 10
1786.7344017211
 20
-833.8371304844
 10
1789.1809792941
 20
-842.5541797438
 10
1791.3880870794
 20
-851.4825614
 10
1793.3540922787
 20
-860.6156703173
 10
1795.0775404591
 20
-869.9467499044
 10
1796.5571566294
 20
-879.4688971134
 10
1797.7918461829
 20
-889.1750675461
 10
1798.7806957075
 20
-899.0580806657
 10
1799.5229736613
 20
-909.1106251089
 10
1800.0181309138
 20
-919.3252640943
 10
1800.2658011522
 20
-929.6944409247
 10
1800.2658011522
 20
-940.2104845773
 10
1800.0181309138
 20
-950.8656153782
 10
1799.5229736613
 20
-961.6519507585
 10
1798.7806957075
 20
-972.5615110849
 10
1797.7918461829
 20
-983.5862255639
 10
1796.5571566294
 20
-994.7179382116
 10
1795.0775404591
 20
-1005.948413888
 10
1793.3540922787
 20
-1017.2693443891
 10
1791.3880870794
 20
-1028.6723545932
 10
1789.1809792941
 20
-1040.1490086568
 10
1786.7344017211
 20
-1051.6908162553
 10
1784.0501643163
 20
-1063.2892388643
 10
1781.1302528542
 20
-1074.9356960758
 10
1777.9768274588
 20
-1086.6215719465
 10
1774.5922210055
 20
-1098.3382213714
 10
1770.9789373956
 20
-1110.0769764796
 10
1767.1396497035
 20
-1121.8291530465
 10
1763.0771981993
 20
-1133.5860569186
 10
1758.7945882479
 20
-1145.3389904451
 10
1754.2949880852
 20
-1157.0792589122
 10
1749.5817264746
 20
-1168.798176976
 10
1744.6582902442
 20
-1180.4870750871
 10
1739.5283217077
 20
-1192.1373059048
 10
1734.195615969
 20
-1203.7402506939
 10
1728.6641181156
 20
-1215.2873257014
 10
1722.9379202994
 20
-1226.7699885056
 10
1717.0212587096
 20
-1238.179744337
 10
1710.9185104387
 20
-1249.5081523617
 10
1704.6341902445
 20
-1260.7468319261
 10
1698.1729472102
 20
-1271.8874687572
 10
1691.5395613047
 20
-1282.9218211127
 10
1684.7389398467
 20
-1293.8417258791
 10
1677.7761138742
 20
-1304.6391046097
 10
1670.6562344228
 20
-1315.3059695018
 10
1663.3845687147
 20
-1325.8344293054
 10
1655.9664962622
 20
-1336.2166951616
 10
1648.407504888
 20
-1346.4450863643
 10
1640.7131866653
 20
-1356.5120360424
 10
1632.889233781
 20
-1366.4100967579
 10
1624.9414343244
 20
-1376.1319460152
 10
1616.8756680055
 20
-1385.6703916785
 10
1608.697901805
 20
-1395.0183772923
 10
1600.4141855602
 20
-1404.1689873015
 10
1592.0306474891
 20
-1413.1154521679
 10
1583.5534896572
 20
-1421.8511533779
 10
1574.988983389
 20
-1430.3696283391
 10
1566.3434646284
 20
-1438.664575161
 10
1557.6233292519
 20
-1446.7298573171
 10
1548.8350283365
 20
-1454.5595081849
 10
1539.9850633874
 20
-1462.1477354597
 10
1531.0799815284
 20
-1469.4889254398
 10
1522.1263706584
 20
-1476.5776471794
 10
1513.1308545774
 20
-1483.4086565066
 10
1504.1000880865
 20
-1489.9768999026
 10
1495.040752065
 20
-1496.2775182405
 10
1485.9595485274
 20
-1502.30585038
 10
1476.8631956657
 20
-1508.0574366157
 10
1467.7584228792
 20
-1513.5280219763
 10
1458.6519657963
 20
-1518.7135593724
 10
1449.5505612912
 20
-1523.6102125905
 10
1440.4609425005
 20
-1528.2143591308
 10
1431.3898338417
 20
-1532.5225928876
 10
1422.3439460386
 20
-1536.5317266687
 10
1413.329971157
 20
-1540.2387945532
 10
1404.3545776538
 20
-1543.641054086
 10
1395.4244054435
 20
-1546.7359883062
 10
1386.5460609867
 20
-1549.5213076097
 10
1377.726112402
 20
-1551.9949514425
 10
1368.9710846073
 20
-1554.1550898253
 10
1360.2874544928
 20
-1556.0001247074
 10
1351.6816461292
 20
-1557.5286911486
 10
1343.1600260156
 20
-1558.7396583295
 10
1334.7288983691
 20
-1559.6321303874
 10
1326.3945004615
 20
-1560.2054470796
 10
1318.1629980048
 20
-1560.4591842717
 10
1310.0404805897
 20
-1560.3931542512
 10
1302.0329571811
 20
-1560.0074058664
 10
1294.146351672
 20
-1559.3022244906
 10
1286.3864985017
 20
-1558.2781318105
 10
1278.7591383392
 20
-1556.9358854406
 10
1271.2699138363
 20
-1555.2764783625
 10
1263.9243654533
 20
-1553.3011381907
 10
1256.7279273603
 20
-1551.0113262638
 10
1249.685923417
 20
-1548.4087365639
 10
1242.8035632338
 20
-1545.4952944632
 10
1236.0859383186
 20
-1542.2731552999
 10
1229.5380183092
 20
-1538.7447027831
 10
1223.1646472975
 20
-1534.9125472302
 10
1216.9705402454
 20
-1530.7795236349
 10
1210.9602794973
 20
-1526.3486895707
 10
1205.1383113895
 20
-1521.6233229284
 10
1199.5089429612
 20
-1516.6069194913
 10
1194.076338768
 20
-1511.3031903493
 10
1193.3383847485
 20
-1510.5448661493
  0
LWPOLYLINE
  5
BF
330
1F
100
AcDbEntity
  8
0
  6
Continuous
 62
     7
370
    25
100
AcDbPolyline
 90
      121
 70
   128
 43
0.0
 10
1759.1376917811
 20
-717.5218986308
 10
1764.083275346
 20
-720.4915894292
 10
1770.4936141101
 20
-724.6988233185
 10
1776.7209527664
 20
-729.2043461693
 10
1782.7609513811
 20
-734.0050180093
 10
1788.6094005811
 20
-739.0974931723
 10
1794.262224487
 20
-744.4782226294
 10
1799.7154835538
 20
-750.1434564629
 10
1804.9653773168
 20
-756.0892464792
 10
1810.0082470394
 20
-762.3114489605
 10
1814.8405782638
 20
-768.8057275527
 10
1819.4590032598
 20
-775.5675562874
 10
1823.8603033719
 20
-782.5922227362
 10
1828.0414112625
 20
-789.8748312949
 10
1831.9994130495
 20
-797.4103065951
 10
1835.731550337
 20
-805.1933970416
 10
1839.235222138
 20
-813.218678472
 10
1842.5079866865
 20
-821.4805579371
 10
1845.5475631397
 20
-829.9732775989
 10
1848.3518331674
 20
-838.6909187429
 10
1850.9188424281
 20
-847.6274059032
 10
1853.2468019315
 20
-856.7765110966
 10
1855.3340892845
 20
-866.1318581628
 10
1857.1792498228
 20
-875.6869272085
 10
1858.7809976239
 20
-885.4350591504
 10
1860.1382164038
 20
-895.3694603571
 10
1861.2499602946
 20
-905.4832073828
 10
1862.115454504
 20
-915.7692517925
 10
1862.7340958548
 20
-926.2204250748
 10
1863.105453206
 20
-936.8294436371
 10
1863.2292677525
 20
-947.5889138816
 10
1863.105453206
 20
-958.4913373588
 10
1862.7340958548
 20
-969.5291159923
 10
1862.115454504
 20
-980.6945573747
 10
1861.2499602946
 20
-991.9798801283
 10
1860.1382164038
 20
-1003.3772193282
 10
1858.7809976239
 20
-1014.8786319834
 10
1857.1792498228
 20
-1026.4761025723
 10
1855.3340892845
 20
-1038.1615486291
 10
1853.2468019314
 20
-1049.9268263764
 10
1850.9188424281
 20
-1061.7637364007
 10
1848.3518331674
 20
-1073.6640293671
 10
1845.5475631397
 20
-1085.6194117678
 10
1842.5079866865
 20
-1097.6215517024
 10
1839.235222138
 20
-1109.6620846844
 10
1835.731550337
 20
-1121.7326194705
 10
1831.9994130495
 20
-1133.8247439087
 10
1828.0414112625
 20
-1145.930030801
 10
1823.8603033719
 20
-1158.040043776
 10
1819.4590032598
 20
-1170.1463431687
 10
1814.8405782638
 20
-1182.2404919022
 10
1810.0082470394
 20
-1194.3140613675
 10
1804.9653773168
 20
-1206.3586372978
 10
1799.7154835538
 20
-1218.3658256323
 10
1794.262224487
 20
-1230.327258366
 10
1788.6094005811
 20
-1242.2345993821
 10
1782.7609513811
 20
-1254.0795502609
 10
1776.7209527664
 20
-1265.8538560635
 10
1770.4936141101
 20
-1277.5493110847
 10
1764.083275346
 20
-1289.1577645718
 10
1757.4944039432
 20
-1300.6711264047
 10
1750.7315917935
 20
-1312.0813727343
 10
1743.7995520107
 20
-1323.3805515745
 10
1736.7031156458
 20
-1334.5607883436
 10
1729.447228321
 20
-1345.614291353
 10
1722.036946782
 20
-1356.5333572365
 10
1714.4774353746
 20
-1367.3103763197
 10
1706.7739624452
 20
-1377.9378379226
 10
1698.9318966693
 20
-1388.4083355944
 10
1690.9567033102
 20
-1398.7145722751
 10
1682.8539404097
 20
-1408.8493653807
 10
1674.6292549151
 20
-1418.805651809
 10
1666.2883787436
 20
-1428.5764928622
 10
1657.8371247872
 20
-1438.1550790821
 10
1649.2813828624
 20
-1447.5347349964
 10
1640.6271156049
 20
-1456.7089237702
 10
1631.8803543141
 20
-1465.6712517622
 10
1623.0471947504
 20
-1474.4154729803
 10
1614.1337928862
 20
-1482.9354934346
 10
1605.1463606163
 20
-1491.2253753841
 10
1596.0911614283
 20
-1499.2793414754
 10
1586.9745060379
 20
-1507.0917787685
 10
1577.8027479905
 20
-1514.6572426488
 10
1568.5822792333
 20
-1521.9704606216
 10
1559.319525661
 20
-1529.0263359862
 10
1550.0209426372
 20
-1535.8199513884
 10
1540.6930104957
 20
-1542.3465722471
 10
1531.342230024
 20
-1548.6016500541
 10
1521.9751179331
 20
-1554.5808255441
 10
1512.5982023157
 20
-1560.2799317322
 10
1503.2180180969
 20
-1565.6949968189
 10
1493.8411024795
 20
-1570.822246957
 10
1484.4739903886
 20
-1575.6581088827
 10
1475.1232099169
 20
-1580.1992124051
 10
1465.7952777753
 20
-1584.4423927554
 10
1456.4966947516
 20
-1588.384692792
 10
1447.2339411793
 20
-1592.0233650621
 10
1438.0134724221
 20
-1595.3558737158
 10
1428.8417143747
 20
-1598.3798962735
 10
1419.7250589843
 20
-1601.0933252448
 10
1410.6698597963
 20
-1603.4942695968
 10
1401.6824275264
 20
-1605.5810560726
 10
1392.7690256622
 20
-1607.3522303565
 10
1383.9358660985
 20
-1608.8065580884
 10
1375.1891048077
 20
-1609.9430257238
 10
1366.5348375502
 20
-1610.7608412398
 10
1357.9790956254
 20
-1611.2594346874
 10
1349.527841669
 20
-1611.4384585889
 10
1341.1869654974
 20
-1611.2977881795
 10
1332.9622800029
 20
-1610.8375214947
 10
1324.8595171024
 20
-1610.0579793019
 10
1316.8843237433
 20
-1608.9597048767
 10
1309.0422579674
 20
-1607.5434636244
 10
1301.338785038
 20
-1605.8102425466
 10
1293.7792736306
 20
-1603.7612495532
 10
1286.3689920916
 20
-1601.3979126208
 10
1279.1131047667
 20
-1598.7218787972
 10
1272.0166684019
 20
-1595.7350130541
 10
1265.084628619
 20
-1592.4393969866
 10
1258.3218164693
 20
-1588.8373273633
 10
1256.6785286315
 20
-1587.9010053234
  0
LWPOLYLINE
  5
C0
330
1F
100
AcDbEntity
  8
0
  6
Continuous
 62
     7
370
    25
100
AcDbPolyline
 90
      156
 70
   128
 43
0.0
 10
1578.6439460122
 20
-673.9452132978
 10
1580.6207878792
 20
-673.578430243
 10
1589.4539474429
 20
-672.1241025111
 10
1598.2007087337
 20
-670.9876348757
 10
1606.8549759912
 20
-670.1698193597
 10
1615.410717916
 20
-669.6712259121
 10
1623.8619718724
 20
-669.4922020106
 10
1632.202848044
 20
-669.63287242
 10
1640.4275335385
 20
-670.0931391048
 10
1648.530296439
 20
-670.8726812976
 10
1656.5054897981
 20
-671.9709557228
 10
1664.347555574
 20
-673.3871969751
 10
1672.0510285034
 20
-675.1204180529
 10
1679.6105399108
 20
-677.1694110463
 10
1687.0208214498
 20
-679.5327479788
 10
1694.2767087747
 20
-682.2087818023
 10
1701.3731451395
 20
-685.1956475454
 10
1708.3051849223
 20
-688.4912636129
 10
1715.067997072
 20
-692.0933332362
 10
1721.6568684748
 20
-695.9993460745
 10
1728.0672072389
 20
-700.2065799639
 10
1734.2945458952
 20
-704.7121028146
 10
1740.3345445099
 20
-709.5127746546
 10
1746.1829937099
 20
-714.6052498176
 10
1751.8358176158
 20
-719.9859792747
 10
1757.2890766827
 20
-725.6512131083
 10
1762.5389704456
 20
-731.5970031245
 10
1767.5818401682
 20
-737.8192056058
 10
1772.4141713926
 20
-744.313484198
 10
1777.0325963886
 20
-751.0753129327
 10
1781.4338965007
 20
-758.0999793815
 10
1785.6150043913
 20
-765.3825879402
 10
1789.5730061783
 20
-772.9180632405
 10
1793.3051434658
 20
-780.7011536869
 10
1796.8088152668
 20
-788.7264351173
 10
1800.0815798153
 20
-796.9883145824
 10
1803.1211562685
 20
-805.4810342442
 10
1805.9254262962
 20
-814.1986753882
 10
1808.4924355569
 20
-823.1351625485
 10
1810.8203950603
 20
-832.2842677419
 10
1812.9076824133
 20
-841.6396148081
 10
1814.7528429516
 20
-851.1946838538
 10
1816.3545907527
 20
-860.9428157958
 10
1817.7118095326
 20
-870.8772170025
 10
1818.8235534234
 20
-880.9909640281
 10
1819.6890476328
 20
-891.2770084379
 10
1820.3076889836
 20
-901.7281817202
 10
1820.6790463348
 20
-912.3372002824
 10
1820.8028608813
 20
-923.096670527
 10
1820.6790463348
 20
-933.9990940041
 10
1820.3076889836
 20
-945.0368726376
 10
1819.6890476328
 20
-956.20231402
 10
1818.8235534234
 20
-967.4876367736
 10
1817.7118095326
 20
-978.8849759736
 10
1816.3545907527
 20
-990.3863886287
 10
1814.7528429516
 20
-1001.9838592176
 10
1812.9076824133
 20
-1013.6693052744
 10
1810.8203950603
 20
-1025.4345830217
 10
1808.4924355569
 20
-1037.2714930461
 10
1805.9254262962
 20
-1049.1717860124
 10
1803.1211562685
 20
-1061.1271684131
 10
1800.0815798153
 20
-1073.1293083477
 10
1796.8088152668
 20
-1085.1698413297
 10
1793.3051434658
 20
-1097.2403761158
 10
1789.5730061783
 20
-1109.3325005541
 10
1785.6150043913
 20
-1121.4377874463
 10
1781.4338965007
 20
-1133.5478004213
 10
1777.0325963886
 20
-1145.654099814
 10
1772.4141713926
 20
-1157.7482485475
 10
1767.5818401682
 20
-1169.8218180128
 10
1762.5389704456
 20
-1181.8663939432
 10
1757.2890766826
 20
-1193.8735822776
 10
1751.8358176158
 20
-1205.8350150113
 10
1746.1829937099
 20
-1217.7423560274
 10
1740.3345445099
 20
-1229.5873069062
 10
1734.2945458952
 20
-1241.3616127088
 10
1728.0672072389
 20
-1253.05706773
 10
1721.6568684748
 20
-1264.6655212171
 10
1715.067997072
 20
-1276.17888305
 10
1708.3051849223
 20
-1287.5891293797
 10
1701.3731451395
 20
-1298.8883082198
 10
1694.2767087747
 20
-1310.068544989
 10
1687.0208214498
 20
-1321.1220479983
 10
1679.6105399108
 20
-1332.0411138818
 10
1672.0510285034
 20
-1342.818132965
 10
1664.347555574
 20
-1353.4455945679
 10
1656.5054897981
 20
-1363.9160922398
 10
1648.530296439
 20
-1374.2223289204
 10
1640.4275335385
 20
-1384.357122026
 10
1632.2028480439
 20
-1394.3134084543
 10
1623.8619718724
 20
-1404.0842495075
 10
1615.410717916
 20
-1413.6628357274
 10
1606.8549759912
 20
-1423.0424916417
 10
1598.2007087337
 20
-1432.2166804155
 10
1589.4539474429
 20
-1441.1790084075
 10
1580.6207878792
 20
-1449.9232296257
 10
1571.707386015
 20
-1458.4432500799
 10
1562.7199537451
 20
-1466.7331320294
 10
1553.6647545571
 20
-1474.7870981207
 10
1544.5480991667
 20
-1482.5995354138
 10
1535.3763411193
 20
-1490.1649992941
 10
1526.1558723621
 20
-1497.4782172669
 10
1516.8931187898
 20
-1504.5340926315
 10
1507.594535766
 20
-1511.3277080337
 10
1498.2666036245
 20
-1517.8543288924
 10
1488.9158231528
 20
-1524.1094066995
 10
1479.5487110619
 20
-1530.0885821894
 10
1470.1717954445
 20
-1535.7876883776
 10
1460.7916112257
 20
-1541.2027534642
 10
1451.4146956083
 20
-1546.3300036023
 10
1442.0475835174
 20
-1551.165865528
 10
1432.6968030457
 20
-1555.7069690504
 10
1423.3688709042
 20
-1559.9501494007
 10
1414.0702878804
 20
-1563.8924494373
 10
1404.8075343081
 20
-1567.5311217074
 10
1395.5870655509
 20
-1570.8636303611
 10
1386.4153075035
 20
-1573.8876529188
 10
1377.2986521131
 20
-1576.6010818901
 10
1368.2434529251
 20
-1579.0020262422
 10
1359.2560206552
 20
-1581.0888127179
 10
1350.342618791
 20
-1582.8599870018
 10
1341.5094592273
 20
-1584.3143147338
 10
1332.7626979365
 20
-1585.4507823691
 10
1324.108430679
 20
-1586.2685978851
 10
1315.5526887542
 20
-1586.7671913328
 10
1307.1014347978
 20
-1586.9462152342
 10
1298.7605586262
 20
-1586.8055448248
 10
1290.5358731317
 20
-1586.3452781401
 10
1282.4331102312
 20
-1585.5657359473
 10
1274.4579168721
 20
-1584.4674615221
 10
1266.6158510962
 20
-1583.0512202698
 10
1258.9123781668
 20
-1581.3179991919
 10
1251.3528667594
 20
-1579.2690061985
 10
1243.9425852204
 20
-1576.9056692661
 10
1236.6866978955
 20
-1574.2296354426
 10
1229.5902615307
 20
-1571.2427696994
 10
1222.6582217478
 20
-1567.947153632
 10
1215.8954095982
 20
-1564.3450840087
 10
1209.3065381954
 20
-1560.4390711704
 10
1202.8961994313
 20
-1556.231837281
 10
1196.668860775
 20
-1551.7263144302
 10
1190.6288621603
 20
-1546.9256425902
 10
1184.7804129603
 20
-1541.8331674273
 10
1179.1275890544
 20
-1536.4524379701
 10
1173.6743299875
 20
-1530.7872041366
 10
1168.4244362246
 20
-1524.8414141203
 10
1163.381566502
 20
-1518.619211639
 10
1158.5492352776
 20
-1512.1249330469
 10
1153.9308102816
 20
-1505.3631043122
 10
1149.5295101695
 20
-1498.3384378633
 10
1145.3484022789
 20
-1491.0558293046
 10
1141.3904004919
 20
-1483.5203540044
 10
1137.6582632044
 20
-1475.7372635579
 10
1134.1545914034
 20
-1467.7119821276
 10
1130.8818268549
 20
-1459.4501026624
 10
1128.6805163259
 20
-1453.3891894404
  0
LWPOLYLINE
  5
C1
330
1F
100
AcDbEntity
  8
0
  6
Continuous
 62
     7
370
    25
100
AcDbPolyline
 90
       39
 70
   128
 43
0.0
 10
1206.8322751545
 20
-1229.6608341781
 10
1207.690929331
 20
-1225.6740009531
 10
1210.2582399062
 20
-1214.4650956617
 10
1213.0618304895
 20
-1203.2071691783
 10
1216.0994755383
 20
-1191.9091582546
 10
1219.3687637136
 20
-1180.5800314619
 10
1222.8670997935
 20
-1169.2287820721
 10
1226.5917067337
 20
-1157.8644209182
 10
1230.5396278719
 20
-1146.4959692415
 10
1234.7077292748
 20
-1135.1324515308
 10
1239.092702226
 20
-1123.7828883579
 10
1243.6910658521
 20
-1112.4562892173
 10
1248.4991698867
 20
-1101.1616453743
 10
1253.5131975672
 20
-1089.9079227274
 10
1258.7291686651
 20
-1078.7040546912
 10
1264.1429426454
 20
-1067.5589351046
 10
1269.7502219536
 20
-1056.4814111711
 10
1275.546555427
 20
-1045.4802764354
 10
1281.5273418282
 20
-1034.564263803
 10
1287.6878334975
 20
-1023.742038608
 10
1294.0231401221
 20
-1013.0221917341
 10
1300.5282326175
 20
-1002.4132327955
 10
1307.1979471203
 20
-991.9235833812
 10
1314.026989087
 20
-981.5615703701
 10
1321.0099374968
 20
-971.3354193212
 10
1328.1412491553
 20
-961.2532479434
 10
1335.4152630947
 20
-951.3230596521
 10
1342.8262050672
 20
-941.5527372157
 10
1350.368192129
 20
-931.9500364979
 10
1358.0352373106
 20
-922.5225803013
 10
1365.8212543687
 20
-913.2778523162
 10
1373.720062618
 20
-904.2231911798
 10
1381.7253918375
 20
-895.3657846506
 10
1389.8308872478
 20
-886.7126639028
 10
1398.0301145558
 20
-878.2706979447
 10
1406.3165650622
 20
-870.046588166
 10
1414.6836608283
 20
-862.0468630183
 10
1423.1247598978
 20
-854.2778728323
 10
1423.9822351377
 20
-853.5053133917
  0
ENDSEC
  0
SECTION
  2
OBJECTS
  0
DICTIONARY
  5
C
330
0
100
AcDbDictionary
281
     1
  3
ACAD_GROUP
350
D
  3
ACAD_LAYOUT
350
1A
  3
ACAD_MLINESTYLE
350
17
  3
ACAD_PLOTSETTINGS
350
19
  3
ACAD_PLOTSTYLENAME
350
E
  3
ACAD_SCALELIST
350
47
  0
DICTIONARY
  5
D
102
{ACAD_REACTORS
330
C
102
}
330
C
100
AcDbDictionary
281
     1
  0
DICTIONARY
  5
1A
102
{ACAD_REACTORS
330
C
102
}
330
C
100
AcDbDictionary
281
     1
  3
Layout1
350
1E
  3
Layout2
350
26
  3
Model
350
22
  0
DICTIONARY
  5
17
102
{ACAD_REACTORS
330
C
102
}
330
C
100
AcDbDictionary
281
     1
  3
Standard
350
18
  0
DICTIONARY
  5
19
102
{ACAD_REACTORS
330
C
102
}
330
C
100
AcDbDictionary
281
     1
  0
ACDBDICTIONARYWDFLT
  5
E
102
{ACAD_REACTORS
330
C
102
}
330
C
100
AcDbDictionary
281
     1
  3
Normal
350
F
100
AcDbDictionaryWithDefault
340
F
  0
DICTIONARY
  5
47
102
{ACAD_REACTORS
330
C
102
}
330
C
100
AcDbDictionary
281
     1
  3
A0
350
48
  3
A1
350
49
  3
A2
350
4A
  3
A3
350
4B
  3
A4
350
4C
  3
A5
350
4D
  3
A6
350
4E
  3
A7
350
4F
  3
A8
350
50
  3
A9
350
51
  3
B0
350
52
  3
B1
350
53
  3
B2
350
54
  3
B3
350
55
  3
B4
350
56
  3
B5
350
57
  3
B6
350
58
  3
B7
350
59
  3
B8
350
5A
  3
B9
350
5B
  3
C0
350
5C
  3
C1
350
5D
  3
C2
350
5E
  3
C3
350
5F
  3
C4
350
60
  3
C5
350
61
  3
C6
350
62
  3
C7
350
63
  3
C8
350
64
  3
C9
350
65
  3
D0
350
66
  3
D1
350
67
  3
D2
350
68
  0
LAYOUT
  5
1E
102
{ACAD_REACTORS
330
1A
102
}
330
1A
100
AcDbPlotSettings
  1

  2
none_device
  4

  6

 40
0.0
 41
0.0
 42
0.0
 43
0.0
 44
0.0
 45
0.0
 46
0.0
 47
0.0
 48
0.0
 49
0.0
140
0.0
141
0.0
142
1.0
143
1.0
 70
   688
 72
     1
 73
     0
 74
     5
  7

 75
    16
147
1.0
148
0.0
149
0.0
100
AcDbLayout
  1
Layout1
 70
     1
 71
     1
 10
0.0
 20
0.0
 11
420.0
 21
297.0
 12
0.0
 22
0.0
 32
0.0
 14
1.0000000000E+20
 24
1.0000000000E+20
 34
1.0000000000E+20
 15
-1.0000000000E+20
 25
-1.0000000000E+20
 35
-1.0000000000E+20
146
0.0
 13
0.0
 23
0.0
 33
0.0
 16
1.0
 26
0.0
 36
0.0
 17
0.0
 27
1.0
 37
0.0
 76
     0
330
1B
  0
LAYOUT
  5
26
102
{ACAD_REACTORS
330
1A
102
}
330
1A
100
AcDbPlotSettings
  1

  2
none_device
  4

  6

 40
0.0
 41
0.0
 42
0.0
 43
0.0
 44
0.0
 45
0.0
 46
0.0
 47
0.0
 48
0.0
 49
0.0
140
0.0
141
0.0
142
1.0
143
1.0
 70
   688
 72
     1
 73
     0
 74
     5
  7

 75
    16
147
1.0
148
0.0
149
0.0
100
AcDbLayout
  1
Layout2
 70
     1
 71
     2
 10
0.0
 20
0.0
 11
0.0
 21
0.0
 12
0.0
 22
0.0
 32
0.0
 14
0.0
 24
0.0
 34
0.0
 15
0.0
 25
0.0
 35
0.0
146
0.0
 13
0.0
 23
0.0
 33
0.0
 16
1.0
 26
0.0
 36
0.0
 17
0.0
 27
1.0
 37
0.0
 76
     0
330
23
  0
LAYOUT
  5
22
102
{ACAD_REACTORS
330
1A
102
}
330
1A
100
AcDbPlotSettings
  1

  2
none_device
  4
Letter_(8.50_x_11.00_Inches)
  6

 40
6.35
 41
6.35
 42
6.35000508
 43
6.35000508
 44
215.9
 45
279.4
 46
0.0
 47
0.0
 48
0.0
 49
0.0
140
0.0
141
0.0
142
1.0
143
1.0
 70
  1712
 72
     1
 73
     0
 74
     0
  7

 75
     0
147
1.0
148
0.0
149
0.0
100
AcDbLayout
  1
Model
 70
     1
 71
     0
 10
0.0
 20
0.0
 11
279.4
 21
215.9
 12
0.0
 22
0.0
 32
0.0
 14
0.0
 24
0.0
 34
0.0
 15
279.4
 25
215.9
 35
0.0
146
0.0
 13
0.0
 23
0.0
 33
0.0
 16
1.0
 26
0.0
 36
0.0
 17
0.0
 27
1.0
 37
0.0
 76
     0
330
1F
331
29
  0
MLINESTYLE
  5
18
102
{ACAD_REACTORS
330
17
102
}
330
17
100
AcDbMlineStyle
  2
Standard
 70
     0
  3

 62
   256
 51
90.0
 52
90.0
 71
     2
 49
0.5
 62
   256
  6
BYLAYER
 49
-0.5
 62
   256
  6
BYLAYER
  0
ACDBPLACEHOLDER
  5
F
102
{ACAD_REACTORS
330
E
102
}
330
E
  0
SCALE
  5
48
102
{ACAD_REACTORS
330
47
102
}
330
47
100
AcDbScale
 70
     0
300
1:1
140
1.0
141
1.0
290
     1
  0
SCALE
  5
49
102
{ACAD_REACTORS
330
47
102
}
330
47
100
AcDbScale
 70
     0
300
1:2
140
1.0
141
2.0
290
     0
  0
SCALE
  5
4A
102
{ACAD_REACTORS
330
47
102
}
330
47
100
AcDbScale
 70
     0
300
1:4
140
1.0
141
4.0
290
     0
  0
SCALE
  5
4B
102
{ACAD_REACTORS
330
47
102
}
330
47
100
AcDbScale
 70
     0
300
1:5
140
1.0
141
5.0
290
     0
  0
SCALE
  5
4C
102
{ACAD_REACTORS
330
47
102
}
330
47
100
AcDbScale
 70
     0
300
1:8
140
1.0
141
8.0
290
     0
  0
SCALE
  5
4D
102
{ACAD_REACTORS
330
47
102
}
330
47
100
AcDbScale
 70
     0
300
1:10
140
1.0
141
10.0
290
     0
  0
SCALE
  5
4E
102
{ACAD_REACTORS
330
47
102
}
330
47
100
AcDbScale
 70
     0
300
1:16
140
1.0
141
16.0
290
     0
  0
SCALE
  5
4F
102
{ACAD_REACTORS
330
47
102
}
330
47
100
AcDbScale
 70
     0
300
1:20
140
1.0
141
20.0
290
     0
  0
SCALE
  5
50
102
{ACAD_REACTORS
330
47
102
}
330
47
100
AcDbScale
 70
     0
300
1:30
140
1.0
141
30.0
290
     0
  0
SCALE
  5
51
102
{ACAD_REACTORS
330
47
102
}
330
47
100
AcDbScale
 70
     0
300
1:40
140
1.0
141
40.0
290
     0
  0
SCALE
  5
52
102
{ACAD_REACTORS
330
47
102
}
330
47
100
AcDbScale
 70
     0
300
1:50
140
1.0
141
50.0
290
     0
  0
SCALE
  5
53
102
{ACAD_REACTORS
330
47
102
}
330
47
100
AcDbScale
 70
     0
300
1:100
140
1.0
141
100.0
290
     0
  0
SCALE
  5
54
102
{ACAD_REACTORS
330
47
102
}
330
47
100
AcDbScale
 70
     0
300
2:1
140
2.0
141
1.0
290
     0
  0
SCALE
  5
55
102
{ACAD_REACTORS
330
47
102
}
330
47
100
AcDbScale
 70
     0
300
4:1
140
4.0
141
1.0
290
     0
  0
SCALE
  5
56
102
{ACAD_REACTORS
330
47
102
}
330
47
100
AcDbScale
 70
     0
300
8:1
140
8.0
141
1.0
290
     0
  0
SCALE
  5
57
102
{ACAD_REACTORS
330
47
102
}
330
47
100
AcDbScale
 70
     0
300
10:1
140
10.0
141
1.0
290
     0
  0
SCALE
  5
58
102
{ACAD_REACTORS
330
47
102
}
330
47
100
AcDbScale
 70
     0
300
100:1
140
100.0
141
1.0
290
     0
  0
SCALE
  5
59
102
{ACAD_REACTORS
330
47
102
}
330
47
100
AcDbScale
 70
     0
300
1/128" = 1'-0"
140
0.0078125
141
12.0
290
     0
  0
SCALE
  5
5A
102
{ACAD_REACTORS
330
47
102
}
330
47
100
AcDbScale
 70
     0
300
1/64" = 1'-0"
140
0.015625
141
12.0
290
     0
  0
SCALE
  5
5B
102
{ACAD_REACTORS
330
47
102
}
330
47
100
AcDbScale
 70
     0
300
1/32" = 1'-0"
140
0.03125
141
12.0
290
     0
  0
SCALE
  5
5C
102
{ACAD_REACTORS
330
47
102
}
330
47
100
AcDbScale
 70
     0
300
1/16" = 1'-0"
140
0.0625
141
12.0
290
     0
  0
SCALE
  5
5D
102
{ACAD_REACTORS
330
47
102
}
330
47
100
AcDbScale
 70
     0
300
3/32" = 1'-0"
140
0.09375
141
12.0
290
     0
  0
SCALE
  5
5E
102
{ACAD_REACTORS
330
47
102
}
330
47
100
AcDbScale
 70
     0
300
1/8" = 1'-0"
140
0.125
141
12.0
290
     0
  0
SCALE
  5
5F
102
{ACAD_REACTORS
330
47
102
}
330
47
100
AcDbScale
 70
     0
300
3/16" = 1'-0"
140
0.1875
141
12.0
290
     0
  0
SCALE
  5
60
102
{ACAD_REACTORS
330
47
102
}
330
47
100
AcDbScale
 70
     0
300
1/4" = 1'-0"
140
0.25
141
12.0
290
     0
  0
SCALE
  5
61
102
{ACAD_REACTORS
330
47
102
}
330
47
100
AcDbScale
 70
     0
300
3/8" = 1'-0"
140
0.375
141
12.0
290
     0
  0
SCALE
  5
62
102
{ACAD_REACTORS
330
47
102
}
330
47
100
AcDbScale
 70
     0
300
1/2" = 1'-0"
140
0.5
141
12.0
290
     0
  0
SCALE
  5
63
102
{ACAD_REACTORS
330
47
102
}
330
47
100
AcDbScale
 70
     0
300
3/4" = 1'-0"
140
0.75
141
12.0
290
     0
  0
SCALE
  5
64
102
{ACAD_REACTORS
330
47
102
}
330
47
100
AcDbScale
 70
     0
300
1" = 1'-0"
140
1.0
141
12.0
290
     0
  0
SCALE
  5
65
102
{ACAD_REACTORS
330
47
102
}
330
47
100
AcDbScale
 70
     0
300
1-1/2" = 1'-0"
140
1.5
141
12.0
290
     0
  0
SCALE
  5
66
102
{ACAD_REACTORS
330
47
102
}
330
47
100
AcDbScale
 70
     0
300
3" = 1'-0"
140
3.0
141
12.0
290
     0
  0
SCALE
  5
67
102
{ACAD_REACTORS
330
47
102
}
330
47
100
AcDbScale
 70
     0
300
6" = 1'-0"
140
6.0
141
12.0
290
     0
  0
SCALE
  5
68
102
{ACAD_REACTORS
330
47
102
}
330
47
100
AcDbScale
 70
     0
300
1'-0" = 1'-0"
140
12.0
141
12.0
290
     0
  0
ENDSEC
  0
EOF
